  0
SECTION
  2
HEADER
  9
$ACADVER
  1
AC1015
  9
$ACADMAINTVER
 70
     6
  9
$DWGCODEPAGE
  3
ANSI_1254
  9
$INSBASE
 10
0.0
 20
0.0
 30
0.0
  9
$EXTMIN
 10
0.0
 20
0.0
 30
0.0
  9
$EXTMAX
 10
279.4
 20
215.9
 30
0.0
  9
$LIMMIN
 10
0.0
 20
0.0
  9
$LIMMAX
 10
279.4
 20
215.9
  9
$ORTHOMODE
 70
     0
  9
$REGENMODE
 70
     1
  9
$FILLMODE
 70
     1
  9
$QTEXTMODE
 70
     0
  9
$MIRRTEXT
 70
     1
  9
$LTSCALE
 40
1.0
  9
$ATTMODE
 70
     1
  9
$TEXTSIZE
 40
3.5
  9
$TRACEWID
 40
1.0
  9
$TEXTSTYLE
  7
Standard
  9
$CLAYER
  8
0
  9
$CELTYPE
  6
ByLayer
  9
$CECOLOR
 62
   256
  9
$CELTSCALE
 40
1.0
  9
$DISPSILH
 70
     0
  9
$DIMSCALE
 40
1.0
  9
$DIMASZ
 40
3.5
  9
$DIMEXO
 40
1.0
  9
$DIMDLI
 40
3.75
  9
$DIMRND
 40
0.0
  9
$DIMDLE
 40
0.0
  9
$DIMEXE
 40
1.0
  9
$DIMTP
 40
0.0
  9
$DIMTM
 40
0.0
  9
$DIMTXT
 40
3.5
  9
$DIMCEN
 40
2.5
  9
$DIMTSZ
 40
0.0
  9
$DIMTOL
 70
     0
  9
$DIMLIM
 70
     0
  9
$DIMTIH
 70
     1
  9
$DIMTOH
 70
     1
  9
$DIMSE1
 70
     0
  9
$DIMSE2
 70
     0
  9
$DIMTAD
 70
     1
  9
$DIMZIN
 70
     0
  9
$DIMBLK
  1

  9
$DIMASO
 70
     1
  9
$DIMSHO
 70
     1
  9
$DIMPOST
  1

  9
$DIMAPOST
  1

  9
$DIMALT
 70
     0
  9
$DIMALTD
 70
     3
  9
$DIMALTF
 40
0.0393700787
  9
$DIMLFAC
 40
1.0
  9
$DIMTOFL
 70
     1
  9
$DIMTVP
 40
0.0
  9
$DIMTIX
 70
     0
  9
$DIMSOXD
 70
     0
  9
$DIMSAH
 70
     0
  9
$DIMBLK1
  1

  9
$DIMBLK2
  1

  9
$DIMSTYLE
  2
ISO-25
  9
$DIMCLRD
 70
     0
  9
$DIMCLRE
 70
     0
  9
$DIMCLRT
 70
     0
  9
$DIMTFAC
 40
1.0
  9
$DIMGAP
 40
1.524
  9
$DIMJUST
 70
     0
  9
$DIMSD1
 70
     0
  9
$DIMSD2
 70
     0
  9
$DIMTOLJ
 70
     0
  9
$DIMTZIN
 70
     0
  9
$DIMALTZ
 70
     0
  9
$DIMALTTZ
 70
     0
  9
$DIMUPT
 70
     0
  9
$DIMDEC
 70
     2
  9
$DIMTDEC
 70
     2
  9
$DIMALTU
 70
     2
  9
$DIMALTTD
 70
     3
  9
$DIMTXSTY
  7
Standard
  9
$DIMAUNIT
 70
     0
  9
$DIMADEC
 70
     2
  9
$DIMALTRND
 40
0.0
  9
$DIMAZIN
 70
     0
  9
$DIMDSEP
 70
    44
  9
$DIMATFIT
 70
     3
  9
$DIMFRAC
 70
     0
  9
$DIMLDRBLK
  1

  9
$DIMLUNIT
 70
     2
  9
$DIMLWD
 70
    -2
  9
$DIMLWE
 70
    -2
  9
$DIMTMOVE
 70
     0
  9
$LUNITS
 70
     2
  9
$LUPREC
 70
     2
  9
$SKETCHINC
 40
1.0
  9
$FILLETRAD
 40
10.0
  9
$AUNITS
 70
     0
  9
$AUPREC
 70
     2
  9
$MENU
  1
.
  9
$ELEVATION
 40
0.0
  9
$PELEVATION
 40
0.0
  9
$THICKNESS
 40
0.0
  9
$LIMCHECK
 70
     0
  9
$CHAMFERA
 40
0.0
  9
$CHAMFERB
 40
0.0
  9
$CHAMFERC
 40
0.0
  9
$CHAMFERD
 40
0.0
  9
$SKPOLY
 70
     0
  9
$TDCREATE
 40
2459935.71048912
  9
$TDUCREATE
 40
2459935.58548912
  9
$TDUPDATE
 40
2459935.710489294
  9
$TDUUPDATE
 40
2459935.585489294
  9
$TDINDWG
 40
0.0000000116
  9
$TDUSRTIMER
 40
0.0000000116
  9
$USRTIMER
 70
     1
  9
$ANGBASE
 50
0.0
  9
$ANGDIR
 70
     0
  9
$PDMODE
 70
     0
  9
$PDSIZE
 40
-1.0
  9
$PLINEWID
 40
0.0
  9
$SPLFRAME
 70
     0
  9
$SPLINETYPE
 70
     6
  9
$SPLINESEGS
 70
     8
  9
$HANDSEED
  5
12B
  9
$SURFTAB1
 70
     6
  9
$SURFTAB2
 70
     6
  9
$SURFTYPE
 70
     6
  9
$SURFU
 70
     6
  9
$SURFV
 70
     6
  9
$UCSBASE
  2

  9
$UCSNAME
  2

  9
$UCSORG
 10
0.0
 20
0.0
 30
0.0
  9
$UCSXDIR
 10
1.0
 20
0.0
 30
0.0
  9
$UCSYDIR
 10
0.0
 20
1.0
 30
0.0
  9
$UCSORTHOREF
  2

  9
$UCSORTHOVIEW
 70
     0
  9
$UCSORGTOP
 10
0.0
 20
0.0
 30
0.0
  9
$UCSORGBOTTOM
 10
0.0
 20
0.0
 30
0.0
  9
$UCSORGLEFT
 10
0.0
 20
0.0
 30
0.0
  9
$UCSORGRIGHT
 10
0.0
 20
0.0
 30
0.0
  9
$UCSORGFRONT
 10
0.0
 20
0.0
 30
0.0
  9
$UCSORGBACK
 10
0.0
 20
0.0
 30
0.0
  9
$PUCSBASE
  2

  9
$PUCSNAME
  2

  9
$PUCSORG
 10
0.0
 20
0.0
 30
0.0
  9
$PUCSXDIR
 10
1.0
 20
0.0
 30
0.0
  9
$PUCSYDIR
 10
0.0
 20
1.0
 30
0.0
  9
$PUCSORTHOREF
  2

  9
$PUCSORTHOVIEW
 70
     0
  9
$PUCSORGTOP
 10
0.0
 20
0.0
 30
0.0
  9
$PUCSORGBOTTOM
 10
0.0
 20
0.0
 30
0.0
  9
$PUCSORGLEFT
 10
0.0
 20
0.0
 30
0.0
  9
$PUCSORGRIGHT
 10
0.0
 20
0.0
 30
0.0
  9
$PUCSORGFRONT
 10
0.0
 20
0.0
 30
0.0
  9
$PUCSORGBACK
 10
0.0
 20
0.0
 30
0.0
  9
$USERI1
 70
     0
  9
$USERI2
 70
     0
  9
$USERI3
 70
     0
  9
$USERI4
 70
     0
  9
$USERI5
 70
     0
  9
$USERR1
 40
0.0
  9
$USERR2
 40
0.0
  9
$USERR3
 40
0.0
  9
$USERR4
 40
0.0
  9
$USERR5
 40
0.0
  9
$WORLDVIEW
 70
     1
  9
$SHADEDGE
 70
     3
  9
$SHADEDIF
 70
    70
  9
$TILEMODE
 70
     1
  9
$MAXACTVP
 70
    64
  9
$PINSBASE
 10
0.0
 20
0.0
 30
0.0
  9
$PLIMCHECK
 70
     0
  9
$PEXTMIN
 10
1.0000000000E+20
 20
1.0000000000E+20
 30
1.0000000000E+20
  9
$PEXTMAX
 10
-1.0000000000E+20
 20
-1.0000000000E+20
 30
-1.0000000000E+20
  9
$PLIMMIN
 10
0.0
 20
0.0
  9
$PLIMMAX
 10
420.0
 20
297.0
  9
$UNITMODE
 70
     0
  9
$VISRETAIN
 70
     1
  9
$PLINEGEN
 70
     0
  9
$PSLTSCALE
 70
     1
  9
$TREEDEPTH
 70
  3020
  9
$CMLSTYLE
  2
Standard
  9
$CMLJUST
 70
     0
  9
$CMLSCALE
 40
20.0
  9
$PROXYGRAPHICS
 70
     1
  9
$MEASUREMENT
 70
     1
  9
$CELWEIGHT
370
    -1
  9
$ENDCAPS
280
     0
  9
$JOINSTYLE
280
     0
  9
$LWDISPLAY
290
     1
  9
$INSUNITS
 70
     4
  9
$HYPERLINKBASE
  1

  9
$STYLESHEET
  1

  9
$XEDIT
290
     1
  9
$CEPSNTYPE
380
     0
  9
$PSTYLEMODE
290
     1
  9
$FINGERPRINTGUID
  2
{b9ba7697-8298-49d7-a23a-04316872d3b3}
  9
$VERSIONGUID
  2
{FAEB1C32-E019-11D5-929B-00C0DF256EC4}
  9
$EXTNAMES
290
     1
  9
$PSVPSCALE
 40
0.0
  9
$OLESTARTUP
290
     0
  0
ENDSEC
  0
SECTION
  2
CLASSES
  0
CLASS
  1
ACDBDICTIONARYWDFLT
  2
AcDbDictionaryWithDefault
  3
ObjectDBX Classes
 90
        0
280
     0
281
     0
  0
CLASS
  1
VISUALSTYLE
  2
AcDbVisualStyle
  3
ObjectDBX Classes
 90
     4095
280
     0
281
     0
  0
CLASS
  1
MATERIAL
  2
AcDbMaterial
  3
ObjectDBX Classes
 90
     1153
280
     0
281
     0
  0
CLASS
  1
SCALE
  2
AcDbScale
  3
ObjectDBX Classes
 90
     1153
280
     0
281
     0
  0
CLASS
  1
TABLESTYLE
  2
AcDbTableStyle
  3
ObjectDBX Classes
 90
     4095
280
     0
281
     0
  0
CLASS
  1
MLEADERSTYLE
  2
AcDbMLeaderStyle
  3
ACDB_MLEADERSTYLE_CLASS
 90
     4095
280
     0
281
     0
  0
CLASS
  1
SUN
  2
AcDbSun
  3
SCENEOE
 90
     1153
280
     0
281
     0
  0
CLASS
  1
ACDBPLACEHOLDER
  2
AcDbPlaceHolder
  3
ObjectDBX Classes
 90
        0
280
     0
281
     0
  0
CLASS
  1
LAYOUT
  2
AcDbLayout
  3
ObjectDBX Classes
 90
        0
280
     0
281
     0
  0
ENDSEC
  0
SECTION
  2
TABLES
  0
TABLE
  2
VPORT
  5
8
330
0
100
AcDbSymbolTable
 70
     1
  0
VPORT
  5
29
330
8
100
AcDbSymbolTableRecord
100
AcDbViewportTableRecord
  2
*Active
 70
     0
 10
0.0
 20
0.0
 11
1.0
 21
1.0
 12
139.7
 22
107.95
 13
0.0
 23
0.0
 14
10.0
 24
10.0
 15
10.0
 25
10.0
 16
0.0
 26
0.0
 36
1.0
 17
0.0
 27
0.0
 37
0.0
 40
215.9
 41
1.2941176471
 42
50.0
 43
0.0
 44
0.0
 50
0.0
 51
0.0
 71
     0
 72
  2000
 73
     1
 74
     3
 75
     0
 76
     0
 77
     0
 78
     0
281
     0
 65
     1
110
0.0
120
0.0
130
0.0
111
1.0
121
0.0
131
0.0
112
0.0
122
1.0
132
0.0
 79
     0
146
0.0
  0
ENDTAB
  0
TABLE
  2
LTYPE
  5
5
330
0
100
AcDbSymbolTable
 70
     6
  0
LTYPE
  5
14
330
5
100
AcDbSymbolTableRecord
100
AcDbLinetypeTableRecord
  2
ByBlock
 70
     0
  3

 72
    65
 73
     0
 40
0.0
  0
LTYPE
  5
15
330
5
100
AcDbSymbolTableRecord
100
AcDbLinetypeTableRecord
  2
ByLayer
 70
     0
  3

 72
    65
 73
     0
 40
0.0
  0
LTYPE
  5
16
330
5
100
AcDbSymbolTableRecord
100
AcDbLinetypeTableRecord
  2
Continuous
 70
     0
  3
Solid line
 72
    65
 73
     0
 40
0.0
  0
LTYPE
  5
6E
330
5
100
AcDbSymbolTableRecord
100
AcDbLinetypeTableRecord
  2
HIDDEN
 70
     0
  3
Hidden __ __ __ __ __ __ __ __ __ __ __ __ __ __
 72
    65
 73
     2
 40
1.905
 49
1.27
 74
     0
 49
-0.635
 74
     0
  0
LTYPE
  5
6F
330
5
100
AcDbSymbolTableRecord
100
AcDbLinetypeTableRecord
  2
PHANTOM
 70
     0
  3
Phantom ______  __  __  ______  __  __  ______
 72
    65
 73
     6
 40
12.7
 49
6.35
 74
     0
 49
-1.27
 74
     0
 49
1.27
 74
     0
 49
-1.27
 74
     0
 49
1.27
 74
     0
 49
-1.27
 74
     0
  0
LTYPE
  5
70
330
5
100
AcDbSymbolTableRecord
100
AcDbLinetypeTableRecord
  2
CENTER
 70
     0
  3
Center ____ _ ____ _ ____ _ ____ _ ____ _ ____
 72
    65
 73
     4
 40
10.16
 49
6.35
 74
     0
 49
-1.27
 74
     0
 49
1.27
 74
     0
 49
-1.27
 74
     0
  0
LTYPE
  5
71
330
5
100
AcDbSymbolTableRecord
100
AcDbLinetypeTableRecord
  2
CENTERX2
 70
     0
  3
Center (2x) ________  __  ________  __  _____
 72
    65
 73
     4
 40
20.32
 49
12.7
 74
     0
 49
-2.54
 74
     0
 49
2.54
 74
     0
 49
-2.54
 74
     0
  0
LTYPE
  5
72
330
5
100
AcDbSymbolTableRecord
100
AcDbLinetypeTableRecord
  2
DOT2
 70
     0
  3
Dot (.5x) ........................................
 72
    65
 73
     2
 40
0.635
 49
0.0
 74
     0
 49
-0.635
 74
     0
  0
ENDTAB
  0
TABLE
  2
LAYER
  5
2
330
0
100
AcDbSymbolTable
 70
    17
  0
LAYER
  5
10
330
2
100
AcDbSymbolTableRecord
100
AcDbLayerTableRecord
  2
0
 70
     0
 62
     7
  6
Continuous
370
    -3
390
F
  0
LAYER
  5
73
330
2
100
AcDbSymbolTableRecord
100
AcDbLayerTableRecord
  2
FORMAT
 70
     0
 62
     7
  6
Continuous
370
    -3
390
F
  0
LAYER
  5
74
330
2
100
AcDbSymbolTableRecord
100
AcDbLayerTableRecord
  2
YARDIMCI_GEOMETRI
 70
     0
 62
    -6
  6
Continuous
290
     0
370
    -3
390
F
  0
LAYER
  5
75
330
2
100
AcDbSymbolTableRecord
100
AcDbLayerTableRecord
  2
SAYFA_CERCEVESI
 70
     0
 62
     7
  6
Continuous
370
    25
390
F
  0
LAYER
  5
76
330
2
100
AcDbSymbolTableRecord
100
AcDbLayerTableRecord
  2
ANTET
 70
     0
 62
     7
  6
Continuous
370
    -3
390
F
  0
LAYER
  5
77
330
2
100
AcDbSymbolTableRecord
100
AcDbLayerTableRecord
  2
OLCU
 70
     0
 62
   150
  6
Continuous
370
    -3
390
F
  0
LAYER
  5
78
330
2
100
AcDbSymbolTableRecord
100
AcDbLayerTableRecord
  2
METIN
 70
     0
 62
    96
  6
Continuous
370
    -3
390
F
  0
LAYER
  5
79
330
2
100
AcDbSymbolTableRecord
100
AcDbLayerTableRecord
  2
BALON
 70
     0
 62
     5
  6
Continuous
370
    -3
390
F
  0
LAYER
  5
7A
330
2
100
AcDbSymbolTableRecord
100
AcDbLayerTableRecord
  2
VURGU
 70
     0
 62
     7
  6
Continuous
370
    -3
390
F
  0
LAYER
  5
7B
330
2
100
AcDbSymbolTableRecord
100
AcDbLayerTableRecord
  2
SILIK
 70
     0
 62
     7
  6
Continuous
370
    -3
390
F
  0
LAYER
  5
7C
330
2
100
AcDbSymbolTableRecord
100
AcDbLayerTableRecord
  2
MODEL
 70
     0
 62
     7
  6
Continuous
370
    -3
390
F
  0
LAYER
  5
7D
330
2
100
AcDbSymbolTableRecord
100
AcDbLayerTableRecord
  2
DETAYLANDıRMA
 70
     0
 62
   190
  6
Continuous
370
    -3
390
F
  0
LAYER
  5
7E
330
2
100
AcDbSymbolTableRecord
100
AcDbLayerTableRecord
  2
TOLERANS
 70
     0
 62
   230
  6
Continuous
370
    -3
390
F
  0
LAYER
  5
7F
330
2
100
AcDbSymbolTableRecord
100
AcDbLayerTableRecord
  2
MERKEZ_CIZGILERI
 70
     0
 62
    30
  6
Continuous
370
    -3
390
F
  0
LAYER
  5
80
330
2
100
AcDbSymbolTableRecord
100
AcDbLayerTableRecord
  2
KESIT-DETAY_CIZGILERI
 70
     0
 62
     7
  6
Continuous
370
    -3
390
F
  0
LAYER
  5
81
330
2
100
AcDbSymbolTableRecord
100
AcDbLayerTableRecord
  2
\U+041E\U+0421\U+0415\U+0412\U+042B\U+0415
 70
     0
 62
     7
  6
Continuous
370
    -3
390
F
  0
LAYER
  5
82
330
2
100
AcDbSymbolTableRecord
100
AcDbLayerTableRecord
  2
\U+0412\U+041E\U+0414\U+042F\U+041D\U+042B\U+0415_\U+0417\U+041D\U+0410\U+041A\U+0418
 70
     0
 62
    11
  6
Continuous
370
    -3
390
F
  0
ENDTAB
  0
TABLE
  2
STYLE
  5
3
330
0
100
AcDbSymbolTable
 70
     1
  0
STYLE
  5
11
330
3
100
AcDbSymbolTableRecord
100
AcDbTextStyleTableRecord
  2
Standard
 70
     0
 40
0.0
 41
1.0
 50
0.0
 71
     0
 42
3.5
  3
txt
  4

  0
ENDTAB
  0
TABLE
  2
VIEW
  5
6
330
0
100
AcDbSymbolTable
 70
     0
  0
ENDTAB
  0
TABLE
  2
UCS
  5
7
330
0
100
AcDbSymbolTable
 70
     0
  0
ENDTAB
  0
TABLE
  2
APPID
  5
9
330
0
100
AcDbSymbolTable
 70
     1
  0
APPID
  5
12
330
9
100
AcDbSymbolTableRecord
100
AcDbRegAppTableRecord
  2
ACAD
 70
     0
  0
ENDTAB
  0
TABLE
  2
DIMSTYLE
  5
A
330
0
100
AcDbSymbolTable
 70
     1
100
AcDbDimStyleTable
  0
DIMSTYLE
105
27
330
A
100
AcDbSymbolTableRecord
100
AcDbDimStyleTableRecord
  2
ISO-25
 70
     0
 41
2.5
 42
0.625
 43
3.75
 44
1.25
 73
     0
 74
     0
 77
     1
 78
     8
140
2.5
141
2.5
143
0.0393700787
147
0.625
171
     3
172
     1
178
     0
271
     2
272
     2
274
     3
278
    44
283
     0
284
     8
340
11
  0
ENDTAB
  0
TABLE
  2
BLOCK_RECORD
  5
1
330
0
100
AcDbSymbolTable
 70
     4
  0
BLOCK_RECORD
  5
1F
330
1
100
AcDbSymbolTableRecord
100
AcDbBlockTableRecord
  2
*Model_Space
340
22
  0
BLOCK_RECORD
  5
1B
330
1
100
AcDbSymbolTableRecord
100
AcDbBlockTableRecord
  2
*Paper_Space
340
1E
  0
BLOCK_RECORD
  5
23
330
1
100
AcDbSymbolTableRecord
100
AcDbBlockTableRecord
  2
*Paper_Space0
340
26
  0
BLOCK_RECORD
  5
93
330
1
100
AcDbSymbolTableRecord
100
AcDbBlockTableRecord
  2
SW_CENTERMARKSYMBOL_0
340
0
102
{BLKREFS
331
9E
102
}
  0
BLOCK_RECORD
  5
E9
330
1
100
AcDbSymbolTableRecord
100
AcDbBlockTableRecord
  2
SW_CENTERMARKSYMBOL_1
340
0
102
{BLKREFS
331
F4
102
}
  0
BLOCK_RECORD
  5
F5
330
1
100
AcDbSymbolTableRecord
100
AcDbBlockTableRecord
  2
SW_CENTERMARKSYMBOL_2
340
0
102
{BLKREFS
331
100
102
}
  0
ENDTAB
  0
ENDSEC
  0
SECTION
  2
BLOCKS
  0
BLOCK
  5
20
330
1F
100
AcDbEntity
  8
0
100
AcDbBlockBegin
  2
*Model_Space
 70
     0
 10
0.0
 20
0.0
 30
0.0
  3
*Model_Space
  1

  0
ENDBLK
  5
21
330
1F
100
AcDbEntity
  8
0
100
AcDbBlockEnd
  0
BLOCK
  5
1C
330
1B
100
AcDbEntity
 67
     1
  8
0
100
AcDbBlockBegin
  2
*Paper_Space
 70
     0
 10
0.0
 20
0.0
 30
0.0
  3
*Paper_Space
  1

  0
ENDBLK
  5
1D
330
1B
100
AcDbEntity
 67
     1
  8
0
100
AcDbBlockEnd
  0
BLOCK
  5
24
330
23
100
AcDbEntity
  8
0
100
AcDbBlockBegin
  2
*Paper_Space0
 70
     0
 10
0.0
 20
0.0
 30
0.0
  3
*Paper_Space0
  1

  0
ENDBLK
  5
25
330
23
100
AcDbEntity
  8
0
100
AcDbBlockEnd
  0
BLOCK
  5
94
330
93
100
AcDbEntity
  8
0
100
AcDbBlockBegin
  2
SW_CENTERMARKSYMBOL_0
 70
     0
 10
0.0
 20
0.0
 30
0.0
  3
SW_CENTERMARKSYMBOL_0
  1

  0
LINE
  5
96
330
93
100
AcDbEntity
  8
FORMAT
 62
     0
100
AcDbLine
 10
0.0
 20
0.0
 30
0.0
 11
0.0
 21
2.5
 31
0.0
  0
LINE
  5
97
330
93
100
AcDbEntity
  8
FORMAT
 62
     0
100
AcDbLine
 10
0.0
 20
0.0
 30
0.0
 11
-2.5
 21
0.0
 31
0.0
  0
LINE
  5
98
330
93
100
AcDbEntity
  8
FORMAT
 62
     0
100
AcDbLine
 10
0.0
 20
0.0
 30
0.0
 11
0.0
 21
-2.5
 31
0.0
  0
LINE
  5
99
330
93
100
AcDbEntity
  8
FORMAT
 62
     0
100
AcDbLine
 10
0.0
 20
0.0
 30
0.0
 11
2.5
 21
0.0
 31
0.0
  0
LINE
  5
9A
330
93
100
AcDbEntity
  8
FORMAT
 62
     0
100
AcDbLine
 10
0.0
 20
5.0
 30
0.0
 11
0.0
 21
282.5
 31
0.0
  0
LINE
  5
9B
330
93
100
AcDbEntity
  8
FORMAT
 62
     0
100
AcDbLine
 10
-5.0
 20
0.0
 30
0.0
 11
-282.5
 21
0.0
 31
0.0
  0
LINE
  5
9C
330
93
100
AcDbEntity
  8
FORMAT
 62
     0
100
AcDbLine
 10
0.0
 20
-5.0
 30
0.0
 11
0.0
 21
-282.5
 31
0.0
  0
LINE
  5
9D
330
93
100
AcDbEntity
  8
FORMAT
 62
     0
100
AcDbLine
 10
5.0
 20
0.0
 30
0.0
 11
282.5
 21
0.0
 31
0.0
  0
ENDBLK
  5
95
330
93
100
AcDbEntity
  8
0
100
AcDbBlockEnd
  0
BLOCK
  5
EA
330
E9
100
AcDbEntity
  8
0
100
AcDbBlockBegin
  2
SW_CENTERMARKSYMBOL_1
 70
     0
 10
0.0
 20
0.0
 30
0.0
  3
SW_CENTERMARKSYMBOL_1
  1

  0
LINE
  5
EC
330
E9
100
AcDbEntity
  8
FORMAT
 62
     0
100
AcDbLine
 10
0.0
 20
0.0
 30
0.0
 11
0.0
 21
2.5
 31
0.0
  0
LINE
  5
ED
330
E9
100
AcDbEntity
  8
FORMAT
 62
     0
100
AcDbLine
 10
0.0
 20
0.0
 30
0.0
 11
-2.5
 21
0.0
 31
0.0
  0
LINE
  5
EE
330
E9
100
AcDbEntity
  8
FORMAT
 62
     0
100
AcDbLine
 10
0.0
 20
0.0
 30
0.0
 11
0.0
 21
-2.5
 31
0.0
  0
LINE
  5
EF
330
E9
100
AcDbEntity
  8
FORMAT
 62
     0
100
AcDbLine
 10
0.0
 20
0.0
 30
0.0
 11
2.5
 21
0.0
 31
0.0
  0
LINE
  5
F0
330
E9
100
AcDbEntity
  8
FORMAT
 62
     0
100
AcDbLine
 10
0.0
 20
5.0
 30
0.0
 11
0.0
 21
9.5
 31
0.0
  0
LINE
  5
F1
330
E9
100
AcDbEntity
  8
FORMAT
 62
     0
100
AcDbLine
 10
-5.0
 20
0.0
 30
0.0
 11
-9.5
 21
0.0
 31
0.0
  0
LINE
  5
F2
330
E9
100
AcDbEntity
  8
FORMAT
 62
     0
100
AcDbLine
 10
0.0
 20
-5.0
 30
0.0
 11
0.0
 21
-9.5
 31
0.0
  0
LINE
  5
F3
330
E9
100
AcDbEntity
  8
FORMAT
 62
     0
100
AcDbLine
 10
5.0
 20
0.0
 30
0.0
 11
9.5
 21
0.0
 31
0.0
  0
ENDBLK
  5
EB
330
E9
100
AcDbEntity
  8
0
100
AcDbBlockEnd
  0
BLOCK
  5
F6
330
F5
100
AcDbEntity
  8
0
100
AcDbBlockBegin
  2
SW_CENTERMARKSYMBOL_2
 70
     0
 10
0.0
 20
0.0
 30
0.0
  3
SW_CENTERMARKSYMBOL_2
  1

  0
LINE
  5
F8
330
F5
100
AcDbEntity
  8
FORMAT
 62
     0
100
AcDbLine
 10
0.0
 20
0.0
 30
0.0
 11
0.0
 21
2.5
 31
0.0
  0
LINE
  5
F9
330
F5
100
AcDbEntity
  8
FORMAT
 62
     0
100
AcDbLine
 10
0.0
 20
0.0
 30
0.0
 11
-2.5
 21
0.0
 31
0.0
  0
LINE
  5
FA
330
F5
100
AcDbEntity
  8
FORMAT
 62
     0
100
AcDbLine
 10
0.0
 20
0.0
 30
0.0
 11
0.0
 21
-2.5
 31
0.0
  0
LINE
  5
FB
330
F5
100
AcDbEntity
  8
FORMAT
 62
     0
100
AcDbLine
 10
0.0
 20
0.0
 30
0.0
 11
2.5
 21
0.0
 31
0.0
  0
LINE
  5
FC
330
F5
100
AcDbEntity
  8
FORMAT
 62
     0
100
AcDbLine
 10
0.0
 20
5.0
 30
0.0
 11
0.0
 21
9.5
 31
0.0
  0
LINE
  5
FD
330
F5
100
AcDbEntity
  8
FORMAT
 62
     0
100
AcDbLine
 10
-5.0
 20
0.0
 30
0.0
 11
-9.5
 21
0.0
 31
0.0
  0
LINE
  5
FE
330
F5
100
AcDbEntity
  8
FORMAT
 62
     0
100
AcDbLine
 10
0.0
 20
-5.0
 30
0.0
 11
0.0
 21
-9.5
 31
0.0
  0
LINE
  5
FF
330
F5
100
AcDbEntity
  8
FORMAT
 62
     0
100
AcDbLine
 10
5.0
 20
0.0
 30
0.0
 11
9.5
 21
0.0
 31
0.0
  0
ENDBLK
  5
F7
330
F5
100
AcDbEntity
  8
0
100
AcDbBlockEnd
  0
ENDSEC
  0
SECTION
  2
ENTITIES
  0
LINE
  5
83
330
1F
100
AcDbEntity
  8
0
  6
Continuous
 62
     7
370
    25
100
AcDbLine
 10
112.8440838445
 20
456.7390120235
 30
0.0
 11
112.8440838445
 21
461.2504406707
 31
0.0
  0
LINE
  5
84
330
1F
100
AcDbEntity
  8
0
  6
Continuous
 62
     7
370
    25
100
AcDbLine
 10
98.8440838445
 20
461.2504406707
 30
0.0
 11
98.8440838445
 21
455.3354822228
 31
0.0
  0
LINE
  5
85
330
1F
100
AcDbEntity
  8
0
  6
Continuous
 62
     7
370
    25
100
AcDbLine
 10
182.8440838445
 20
455.3347886041
 30
0.0
 11
182.8440838445
 21
461.2504406707
 31
0.0
  0
LINE
  5
86
330
1F
100
AcDbEntity
  8
0
  6
Continuous
 62
     7
370
    25
100
AcDbLine
 10
168.8440838445
 20
461.2504406707
 30
0.0
 11
168.8440838445
 21
456.7432739245
 31
0.0
  0
CIRCLE
  5
87
330
1F
100
AcDbEntity
  8
0
  6
Continuous
 62
     7
370
    25
100
AcDbCircle
 10
140.8440838445
 20
111.2504406707
 30
0.0
 40
346.5
  0
ARC
  5
88
330
1F
100
AcDbEntity
  8
0
  6
Continuous
 62
     7
370
    25
100
AcDbCircle
 10
140.8440838445
 20
111.2504406707
 30
0.0
 40
347.5000000000001
100
AcDbArc
 50
96.9419292205
 51
180.0
  0
ARC
  5
89
330
1F
100
AcDbEntity
  8
0
  6
Continuous
 62
     7
370
    25
100
AcDbCircle
 10
140.8440838445
 20
111.2504406707
 30
0.0
 40
347.5000000000002
100
AcDbArc
 50
85.3783514752
 51
94.6216485248
  0
ARC
  5
8A
330
1F
100
AcDbEntity
  8
0
  6
Continuous
 62
     7
370
    25
100
AcDbCircle
 10
140.8440838445
 20
111.2504406707
 30
0.0
 40
347.5000000000001
100
AcDbArc
 50
180.0
 51
83.0580707795
  0
SPLINE
  5
8B
330
1F
100
AcDbEntity
  8
0
  6
Continuous
 62
     7
370
    25
100
AcDbSpline
210
0.0
220
0.0
230
1.0
 70
     8
 71
     3
 72
    15
 73
    11
 74
     0
 42
0.00000001
 43
0.00000001
 40
0.0
 40
0.0
 40
0.0
 40
0.0
 40
0.1341090811358841
 40
0.2682025532675189
 40
0.4026786836303117
 40
0.5375626614884331
 40
0.6724884223235132
 40
0.8069375567324507
 40
0.9405401370331485
 40
1.0
 40
1.0
 40
1.0
 40
1.0
 10
111.5256291299832
 20
456.5929722632435
 30
0.0
 10
111.001908974197
 20
456.5416945427178
 30
0.0
 10
109.9545296186021
 20
456.439145069899
 30
0.0
 10
107.7490713795855
 20
456.2246873600801
 30
0.0
 10
105.3718657913398
 20
455.9858021192742
 30
0.0
 10
103.0341019294366
 20
455.7429133049015
 30
0.0
 10
101.0044731508664
 20
455.5270906223701
 30
0.0
 10
99.5715357434339
 20
455.3775292740848
 30
0.0
 10
98.84856746100203
 20
455.3089062649271
 30
0.0
 10
98.91940306260754
 20
455.3292245466812
 30
0.0
 10
98.94121919159335
 20
455.3354822228421
 30
0.0
  0
SPLINE
  5
8C
330
1F
100
AcDbEntity
  8
0
  6
Continuous
 62
     7
370
    25
100
AcDbSpline
210
0.0
220
0.0
230
1.0
 70
     8
 71
     3
 72
    10
 73
     6
 74
     0
 42
0.00000001
 43
0.00000001
 40
0.0
 40
0.0
 40
0.0
 40
0.0
 40
0.1267964271165887
 40
0.665165709983689
 40
1.0
 40
1.0
 40
1.0
 40
1.0
 10
112.7730902402914
 20
456.7390120235107
 30
0.0
 10
112.7945153878191
 20
456.7388803515626
 30
0.0
 10
112.9069103013895
 20
456.73818960919
 30
0.0
 10
112.4392473484493
 20
456.685429781436
 30
0.0
 10
111.7788585335647
 20
456.6185988999669
 30
0.0
 10
111.5256291299832
 20
456.5929722632435
 30
0.0
  0
SPLINE
  5
8D
330
1F
100
AcDbEntity
  8
0
  6
Continuous
 62
     7
370
    25
100
AcDbSpline
210
0.0
220
0.0
230
1.0
 70
     8
 71
     3
 72
    15
 73
    11
 74
     0
 42
0.00000001
 43
0.00000001
 40
0.0
 40
0.0
 40
0.0
 40
0.0
 40
0.1418418357166847
 40
0.2836627422191987
 40
0.4259342462834612
 40
0.5683041847671477
 40
0.7103217473402573
 40
0.8517937719247267
 40
0.9927560787622874
 40
1.0
 40
1.0
 40
1.0
 40
1.0
 10
180.9404423642991
 20
455.5005695056952
 30
0.0
 10
180.3423738376206
 20
455.5639243658922
 30
0.0
 10
179.1463250311778
 20
455.6906247380754
 30
0.0
 10
176.8259022921977
 20
455.9336230905657
 30
0.0
 10
174.4309979842553
 20
456.1758403203554
 30
0.0
 10
172.1884648354171
 20
456.3955700703019
 30
0.0
 10
170.3420914780444
 20
456.5738344049653
 30
0.0
 10
169.2108504524297
 20
456.6895781703266
 30
0.0
 10
168.7270423038031
 20
456.7456679679035
 30
0.0
 10
168.8569505321725
 20
456.7433854860966
 30
0.0
 10
168.8633000964699
 20
456.7432739245338
 30
0.0
  0
SPLINE
  5
8E
330
1F
100
AcDbEntity
  8
0
  6
Continuous
 62
     7
370
    25
100
AcDbSpline
210
0.0
220
0.0
230
1.0
 70
     8
 71
     3
 72
    10
 73
     6
 74
     0
 42
0.00000001
 43
0.00000001
 40
0.0
 40
0.0
 40
0.0
 40
0.0
 40
0.2836455335688364
 40
0.7262555037152063
 40
1.0
 40
1.0
 40
1.0
 40
1.0
 10
182.7531417995769
 20
455.3347886040578
 30
0.0
 10
182.7572899919645
 20
455.3291106823635
 30
0.0
 10
182.7679111623883
 20
455.3145727418987
 30
0.0
 10
182.0437419161023
 20
455.385243199632
 30
0.0
 10
181.2454847806967
 20
455.4686838631983
 30
0.0
 10
180.9404423642991
 20
455.5005695056952
 30
0.0
  0
CIRCLE
  5
8F
330
1F
100
AcDbEntity
  8
0
  6
Continuous
 62
     7
370
    25
100
AcDbCircle
 10
140.8440838445
 20
111.2504406707
 30
0.0
 40
280.0
  0
LINE
  5
90
330
1F
100
AcDbEntity
  8
0
  6
Continuous
 62
     7
370
    25
100
AcDbLine
 10
105.8440838445
 20
461.2504406707
 30
0.0
 11
98.8440838445
 21
461.2504406707
 31
0.0
  0
LINE
  5
91
330
1F
100
AcDbEntity
  8
0
  6
Continuous
 62
     7
370
    25
100
AcDbLine
 10
112.8440838445
 20
461.2504406707
 30
0.0
 11
105.8440838445
 21
461.2504406707
 31
0.0
  0
LINE
  5
92
330
1F
100
AcDbEntity
  8
0
  6
Continuous
 62
     7
370
    25
100
AcDbLine
 10
182.8440838445
 20
461.2504406707
 30
0.0
 11
168.8440838445
 21
461.2504406707
 31
0.0
  0
INSERT
  5
9E
330
1F
100
AcDbEntity
  8
FORMAT
 62
     7
100
AcDbBlockReference
  2
SW_CENTERMARKSYMBOL_0
 10
140.8440838445
 20
111.2504406707
 30
0.0
  0
ARC
  5
9F
330
1F
100
AcDbEntity
  8
0
  6
Continuous
 62
     7
370
    25
100
AcDbCircle
 10
1085.546852225
 20
-16194.8745593296
 30
0.0
 40
16653.62500000025
100
AcDbArc
 50
90.0
 51
90.5625207993
  0
LINE
  5
A0
330
1F
100
AcDbEntity
  8
0
  6
Continuous
 62
     7
370
    25
100
AcDbLine
 10
908.046852225
 20
457.8044861163
 30
0.0
 11
903.046852225
 21
457.7504406707
 31
0.0
  0
ARC
  5
A1
330
1F
100
AcDbEntity
  8
0
  6
Continuous
 62
     7
370
    25
100
AcDbCircle
 10
1085.546852225
 20
16417.3754406709
 30
0.0
 40
16653.62500000025
100
AcDbArc
 50
269.3721073304
 51
270.0
  0
LINE
  5
A2
330
1F
100
AcDbEntity
  8
0
  6
Continuous
 62
     7
370
    25
100
AcDbLine
 10
1085.546852225
 20
-236.2495593293
 30
0.0
 11
1110.546852225
 21
-236.2495593293
 31
0.0
  0
LINE
  5
A3
330
1F
100
AcDbEntity
  8
0
  6
Continuous
 62
     7
370
    25
100
AcDbLine
 10
1110.546852225
 20
458.7504406707
 30
0.0
 11
1085.546852225
 21
458.7504406707
 31
0.0
  0
LINE
  5
A4
330
1F
100
AcDbEntity
  8
0
  6
Continuous
 62
     7
370
    25
100
AcDbLine
 10
1293.046852225
 20
457.7504406707
 30
0.0
 11
1288.046852225
 21
457.8044861163
 31
0.0
  0
ARC
  5
A5
330
1F
100
AcDbEntity
  8
0
  6
Continuous
 62
     7
370
    25
100
AcDbCircle
 10
1110.546852225
 20
-16194.8745593296
 30
0.0
 40
16653.62500000025
100
AcDbArc
 50
89.4374792007
 51
90.0
  0
ARC
  5
A6
330
1F
100
AcDbEntity
  8
0
  6
Continuous
 62
     7
370
    25
100
AcDbCircle
 10
1110.546852225
 20
16417.3754406709
 30
0.0
 40
16653.62500000025
100
AcDbArc
 50
270.0
 51
270.6278926696
  0
LINE
  5
A7
330
1F
100
AcDbEntity
  8
0
  6
Continuous
 62
     7
370
    25
100
AcDbLine
 10
922.046852225
 20
456.1744286695
 30
0.0
 11
922.046852225
 21
461.2504406707
 31
0.0
  0
LINE
  5
A8
330
1F
100
AcDbEntity
  8
0
  6
Continuous
 62
     7
370
    25
100
AcDbLine
 10
908.046852225
 20
461.2504406707
 30
0.0
 11
908.046852225
 21
456.0314383627
 31
0.0
  0
LINE
  5
A9
330
1F
100
AcDbEntity
  8
0
  6
Continuous
 62
     7
370
    25
100
AcDbLine
 10
1288.046852225
 20
456.0313097223
 30
0.0
 11
1288.046852225
 21
461.2504406707
 31
0.0
  0
LINE
  5
AA
330
1F
100
AcDbEntity
  8
0
  6
Continuous
 62
     7
370
    25
100
AcDbLine
 10
1274.046852225
 20
461.2504406707
 30
0.0
 11
1274.046852225
 21
456.1748305101
 31
0.0
  0
LINE
  5
AB
330
1F
100
AcDbEntity
  8
0
  6
Continuous
 62
     7
370
    25
100
AcDbLine
 10
903.046852225
 20
111.2504406707
 30
0.0
 11
903.046852225
 21
457.7504406707
 31
0.0
  0
LINE
  5
AC
330
1F
100
AcDbEntity
  8
0
  6
Continuous
 62
     7
370
    25
100
AcDbLine
 10
903.046852225
 20
-235.2495593293
 30
0.0
 11
903.046852225
 21
111.2504406707
 31
0.0
  0
SPLINE
  5
AD
330
1F
100
AcDbEntity
  8
0
  6
Continuous
 62
     7
370
    25
100
AcDbSpline
210
0.0
220
0.0
230
1.0
 70
     8
 71
     3
 72
    18
 73
    14
 74
     0
 42
0.00000001
 43
0.00000001
 40
0.0
 40
0.0
 40
0.0
 40
0.0
 40
0.0170569865348829
 40
0.1250436192464471
 40
0.233301019505504
 40
0.3413891322371688
 40
0.4488664613528712
 40
0.5556088102814657
 40
0.6619394167300074
 40
0.7684276285163857
 40
0.8755188562174213
 40
0.9832814749346359
 40
1.0
 40
1.0
 40
1.0
 40
1.0
 10
921.9940580919521
 20
456.1744286694986
 30
0.0
 10
922.0108436623025
 20
456.1624150515837
 30
0.0
 10
922.1338975477839
 20
456.0743440279449
 30
0.0
 10
921.5931695455357
 20
455.8855739383605
 30
0.0
 10
920.3707726161451
 20
455.6450970413298
 30
0.0
 10
918.4679650288625
 20
455.4487500579684
 30
0.0
 10
916.2017019540189
 20
455.3307601867769
 30
0.0
 10
913.8089711605803
 20
455.307976035907
 30
0.0
 10
911.5700272514367
 20
455.3817400900695
 30
0.0
 10
909.6996811068027
 20
455.5386515502745
 30
0.0
 10
908.4948471765108
 20
455.7525696582854
 30
0.0
 10
907.9583727702349
 20
455.9291592341589
 30
0.0
 10
908.0824670454764
 20
456.0193281631354
 30
0.0
 10
908.099133611898
 20
456.0314383627481
 30
0.0
  0
LINE
  5
AE
330
1F
100
AcDbEntity
  8
0
  6
Continuous
 62
     7
370
    25
100
AcDbLine
 10
1293.046852225
 20
111.2504406707
 30
0.0
 11
1293.046852225
 21
457.7504406707
 31
0.0
  0
LINE
  5
AF
330
1F
100
AcDbEntity
  8
0
  6
Continuous
 62
     7
370
    25
100
AcDbLine
 10
1293.046852225
 20
-235.2495593293
 30
0.0
 11
1293.046852225
 21
111.2504406707
 31
0.0
  0
SPLINE
  5
B0
330
1F
100
AcDbEntity
  8
0
  6
Continuous
 62
     7
370
    25
100
AcDbSpline
210
0.0
220
0.0
230
1.0
 70
     8
 71
     3
 72
    18
 73
    14
 74
     0
 42
0.00000001
 43
0.00000001
 40
0.0
 40
0.0
 40
0.0
 40
0.0
 40
0.0209900748664126
 40
0.1291056747093344
 40
0.2372547654952788
 40
0.3450218186754106
 40
0.4521103205059662
 40
0.5585923374262177
 40
0.6649243399000875
 40
0.7716713660568397
 40
0.879145396653398
 40
0.9872267556146439
 40
1.0
 40
1.0
 40
1.0
 40
1.0
 10
1287.984494527431
 20
456.0313097222931
 30
0.0
 10
1288.003932391289
 20
456.0160648240984
 30
0.0
 10
1288.123490732283
 20
455.9222965607731
 30
0.0
 10
1287.561173362475
 20
455.7420253321236
 30
0.0
 10
1286.308869187795
 20
455.528190438724
 30
0.0
 10
1284.390594838692
 20
455.3740386510732
 30
0.0
 10
1282.119998236657
 20
455.3062807483554
 30
0.0
 10
1279.732719091756
 20
455.3360574679156
 30
0.0
 10
1277.504676758701
 20
455.4585685805816
 30
0.0
 10
1275.647681671785
 20
455.65610191914
 30
0.0
 10
1274.466986406499
 20
455.8959633743843
 30
0.0
 10
1273.947259170216
 20
456.0811856079595
 30
0.0
 10
1274.075054345603
 20
456.1658791631853
 30
0.0
 10
1274.088561146017
 20
456.1748305100832
 30
0.0
  0
LINE
  5
B1
330
1F
100
AcDbEntity
  8
0
  6
Continuous
 62
     7
370
    25
100
AcDbLine
 10
922.046852225
 20
461.2504406707
 30
0.0
 11
908.046852225
 21
461.2504406707
 31
0.0
  0
LINE
  5
B2
330
1F
100
AcDbEntity
  8
0
  6
Continuous
 62
     7
370
    25
100
AcDbLine
 10
1288.046852225
 20
461.2504406707
 30
0.0
 11
1274.046852225
 21
461.2504406707
 31
0.0
  0
LINE
  5
B3
330
1F
100
AcDbEntity
  8
0
  6
Continuous
 62
     1
370
    25
100
AcDbLine
 10
1085.546852225
 20
111.2504406707
 30
0.0
 11
1085.546852225
 21
458.7504406707
 31
0.0
  0
LINE
  5
B4
330
1F
100
AcDbEntity
  8
0
  6
Continuous
 62
     1
370
    25
100
AcDbLine
 10
1085.546852225
 20
-236.2495593293
 30
0.0
 11
1085.546852225
 21
111.2504406707
 31
0.0
  0
LINE
  5
B5
330
1F
100
AcDbEntity
  8
0
  6
Continuous
 62
     1
370
    25
100
AcDbLine
 10
1110.546852225
 20
111.2504406707
 30
0.0
 11
1110.546852225
 21
458.7504406707
 31
0.0
  0
LINE
  5
B6
330
1F
100
AcDbEntity
  8
0
  6
Continuous
 62
     1
370
    25
100
AcDbLine
 10
1110.546852225
 20
-236.2495593293
 30
0.0
 11
1110.546852225
 21
111.2504406707
 31
0.0
  0
ARC
  5
B7
330
1F
100
AcDbEntity
  8
0
  6
Continuous
 62
     7
370
    25
100
AcDbCircle
 10
16446.9690838448
 20
1001.3973013239
 30
0.0
 40
16653.62500000026
100
AcDbArc
 50
180.0
 51
180.6278926696
  0
ARC
  5
B8
330
1F
100
AcDbEntity
  8
0
  6
Continuous
 62
     7
370
    25
100
AcDbCircle
 10
-16165.2809161557
 20
1001.3973013239
 30
0.0
 40
16653.62500000025
100
AcDbArc
 50
359.3721073304
 51
0.0
  0
LINE
  5
B9
330
1F
100
AcDbEntity
  8
0
  6
Continuous
 62
     7
370
    25
100
AcDbLine
 10
488.3440838445
 20
1001.3973013239
 30
0.0
 11
488.3440838445
 21
1026.3973013239
 31
0.0
  0
LINE
  5
BA
330
1F
100
AcDbEntity
  8
0
  6
Continuous
 62
     7
370
    25
100
AcDbLine
 10
-206.6559161555
 20
1026.3973013239
 30
0.0
 11
-206.6559161555
 21
1001.3973013239
 31
0.0
  0
ARC
  5
BB
330
1F
100
AcDbEntity
  8
0
  6
Continuous
 62
     7
370
    25
100
AcDbCircle
 10
16446.9690838448
 20
1026.3973013239
 30
0.0
 40
16653.62500000025
100
AcDbArc
 50
179.3721073304
 51
180.0
  0
ARC
  5
BC
330
1F
100
AcDbEntity
  8
0
  6
Continuous
 62
     7
370
    25
100
AcDbCircle
 10
-16165.2809161557
 20
1026.3973013239
 30
0.0
 40
16653.62500000025
100
AcDbArc
 50
0.0
 51
0.6278926696
  0
LINE
  5
BD
330
1F
100
AcDbEntity
  8
0
  6
Continuous
 62
     7
370
    25
100
AcDbLine
 10
487.3440838445
 20
818.8973013239
 30
0.0
 11
-205.6559161555
 21
818.8973013239
 31
0.0
  0
LINE
  5
BE
330
1F
100
AcDbEntity
  8
0
  6
Continuous
 62
     7
370
    25
100
AcDbLine
 10
487.3440838445
 20
1208.8973013239
 30
0.0
 11
-205.6559161555
 21
1208.8973013239
 31
0.0
  0
LINE
  5
BF
330
1F
100
AcDbEntity
  8
0
  6
Continuous
 62
     1
370
    25
100
AcDbLine
 10
488.3440838445
 20
1001.3973013239
 30
0.0
 11
-206.6559161555
 21
1001.3973013239
 31
0.0
  0
LINE
  5
C0
330
1F
100
AcDbEntity
  8
0
  6
Continuous
 62
     1
370
    25
100
AcDbLine
 10
488.3440838445
 20
1026.3973013239
 30
0.0
 11
-206.6559161555
 21
1026.3973013239
 31
0.0
  0
ARC
  5
C1
330
1F
100
AcDbEntity
  8
0
  6
Continuous
 62
     7
370
    25
100
AcDbCircle
 10
-843.1319791364
 20
16417.3754406709
 30
0.0
 40
16653.62500000025
100
AcDbArc
 50
270.0
 51
270.6278926696
  0
LINE
  5
C2
330
1F
100
AcDbEntity
  8
0
  6
Continuous
 62
     7
370
    25
100
AcDbLine
 10
-660.6319791364
 20
457.7504406707
 30
0.0
 11
-665.6319791364
 21
457.8044861163
 31
0.0
  0
ARC
  5
C3
330
1F
100
AcDbEntity
  8
0
  6
Continuous
 62
     7
370
    25
100
AcDbCircle
 10
-843.1319791364
 20
-16194.8745593296
 30
0.0
 40
16653.62500000025
100
AcDbArc
 50
89.4374792007
 51
90.0
  0
LINE
  5
C4
330
1F
100
AcDbEntity
  8
0
  6
Continuous
 62
     7
370
    25
100
AcDbLine
 10
-843.1319791364
 20
458.7504406707
 30
0.0
 11
-868.1319791364
 21
458.7504406707
 31
0.0
  0
LINE
  5
C5
330
1F
100
AcDbEntity
  8
0
  6
Continuous
 62
     7
370
    25
100
AcDbLine
 10
-868.1319791364
 20
-236.2495593293
 30
0.0
 11
-843.1319791364
 21
-236.2495593293
 31
0.0
  0
ARC
  5
C6
330
1F
100
AcDbEntity
  8
0
  6
Continuous
 62
     7
370
    25
100
AcDbCircle
 10
-868.1319791364
 20
16417.3754406709
 30
0.0
 40
16653.62500000025
100
AcDbArc
 50
269.3721073304
 51
270.0
  0
ARC
  5
C7
330
1F
100
AcDbEntity
  8
0
  6
Continuous
 62
     7
370
    25
100
AcDbCircle
 10
-868.1319791364
 20
-16194.8745593296
 30
0.0
 40
16653.62500000025
100
AcDbArc
 50
90.0
 51
90.5625207993
  0
LINE
  5
C8
330
1F
100
AcDbEntity
  8
0
  6
Continuous
 62
     7
370
    25
100
AcDbLine
 10
-1045.6319791364
 20
457.8044861163
 30
0.0
 11
-1050.6319791364
 21
457.7504406707
 31
0.0
  0
LINE
  5
C9
330
1F
100
AcDbEntity
  8
0
  6
Continuous
 62
     7
370
    25
100
AcDbLine
 10
-665.6319791364
 20
456.0311930878
 30
0.0
 11
-665.6319791364
 21
461.2504406707
 31
0.0
  0
LINE
  5
CA
330
1F
100
AcDbEntity
  8
0
  6
Continuous
 62
     7
370
    25
100
AcDbLine
 10
-679.6319791364
 20
461.2504406707
 30
0.0
 11
-679.6319791364
 21
456.1734136252
 31
0.0
  0
LINE
  5
CB
330
1F
100
AcDbEntity
  8
0
  6
Continuous
 62
     7
370
    25
100
AcDbLine
 10
-1031.6319791364
 20
456.1736308874
 30
0.0
 11
-1031.6319791364
 21
461.2504406707
 31
0.0
  0
LINE
  5
CC
330
1F
100
AcDbEntity
  8
0
  6
Continuous
 62
     7
370
    25
100
AcDbLine
 10
-1045.6319791364
 20
461.2504406707
 30
0.0
 11
-1045.6319791364
 21
456.0313239991
 31
0.0
  0
LINE
  5
CD
330
1F
100
AcDbEntity
  8
0
  6
Continuous
 62
     7
370
    25
100
AcDbLine
 10
-660.6319791364
 20
457.7504406707
 30
0.0
 11
-660.6319791364
 21
-235.2495593293
 31
0.0
  0
SPLINE
  5
CE
330
1F
100
AcDbEntity
  8
0
  6
Continuous
 62
     7
370
    25
100
AcDbSpline
210
0.0
220
0.0
230
1.0
 70
     8
 71
     3
 72
    10
 73
     6
 74
     0
 42
0.00000001
 43
0.00000001
 40
0.0
 40
0.0
 40
0.0
 40
0.0
 40
0.4117612888831106
 40
0.823477726167082
 40
1.0
 40
1.0
 40
1.0
 40
1.0
 10
-677.3939613451246
 20
455.5951345815614
 30
0.0
 10
-677.9113917714999
 20
455.6687046087583
 30
0.0
 10
-678.946196262512
 20
455.8158366494472
 30
0.0
 10
-679.631340070739
 20
456.0279794676471
 30
0.0
 10
-679.5561235075753
 20
456.1398444856906
 30
0.0
 10
-679.5335520607995
 20
456.1734136251815
 30
0.0
  0
SPLINE
  5
CF
330
1F
100
AcDbEntity
  8
0
  6
Continuous
 62
     7
370
    25
100
AcDbSpline
210
0.0
220
0.0
230
1.0
 70
     8
 71
     3
 72
    15
 73
    11
 74
     0
 42
0.00000001
 43
0.00000001
 40
0.0
 40
0.0
 40
0.0
 40
0.0
 40
0.0379826824506182
 40
0.1845317260374475
 40
0.3310920013722114
 40
0.4770990800372246
 40
0.6221751777456748
 40
0.7664559880685706
 40
0.9105844195534637
 40
1.0
 40
1.0
 40
1.0
 40
1.0
 10
-665.7085847856266
 20
456.0311930878183
 30
0.0
 10
-665.6858130334263
 20
456.0107556277551
 30
0.0
 10
-665.5751807539942
 20
455.9114640680772
 30
0.0
 10
-666.1766525043536
 20
455.7269547010403
 30
0.0
 10
-667.4792237619429
 20
455.5159462132883
 30
0.0
 10
-669.4269774918074
 20
455.3668347218062
 30
0.0
 10
-671.7154640343992
 20
455.3051044063674
 30
0.0
 10
-674.092519529899
 20
455.341755962746
 30
0.0
 10
-676.0459870589291
 20
455.4517844895321
 30
0.0
 10
-677.0207570617661
 20
455.5554462366774
 30
0.0
 10
-677.3939613451246
 20
455.5951345815614
 30
0.0
  0
LINE
  5
D0
330
1F
100
AcDbEntity
  8
0
  6
Continuous
 62
     7
370
    25
100
AcDbLine
 10
-1050.6319791364
 20
457.7504406707
 30
0.0
 11
-1050.6319791364
 21
-235.2495593293
 31
0.0
  0
SPLINE
  5
D1
330
1F
100
AcDbEntity
  8
0
  6
Continuous
 62
     7
370
    25
100
AcDbSpline
210
0.0
220
0.0
230
1.0
 70
     8
 71
     3
 72
    10
 73
     6
 74
     0
 42
0.00000001
 43
0.00000001
 40
0.0
 40
0.0
 40
0.0
 40
0.0
 40
0.4145928793581066
 40
0.829124584217763
 40
1.0
 40
1.0
 40
1.0
 40
1.0
 10
-1043.430638307259
 20
455.5005695056933
 30
0.0
 10
-1043.942874567302
 20
455.563795926156
 30
0.0
 10
-1044.967271505297
 20
455.6902394378221
 30
0.0
 10
-1045.637204798034
 20
455.8869718643465
 30
0.0
 10
-1045.558072119618
 20
455.9987088984828
 30
0.0
 10
-1045.534973956222
 20
456.031323999142
 30
0.0
  0
SPLINE
  5
D2
330
1F
100
AcDbEntity
  8
0
  6
Continuous
 62
     7
370
    25
100
AcDbSpline
210
0.0
220
0.0
230
1.0
 70
     8
 71
     3
 72
    15
 73
    11
 74
     0
 42
0.00000001
 43
0.00000001
 40
0.0
 40
0.0
 40
0.0
 40
0.0
 40
0.0403140189303971
 40
0.1862465302308092
 40
0.3324870700614305
 40
0.4784197035710034
 40
0.6234777340376222
 40
0.7675644920024699
 40
0.9111781331210561
 40
0.9999999999999999
 40
0.9999999999999999
 40
0.9999999999999999
 40
0.9999999999999999
 10
-1031.711480841893
 20
456.1736308873826
 30
0.0
 10
-1031.688225012269
 20
456.1523247697564
 30
0.0
 10
-1031.580785523727
 20
456.0538927457147
 30
0.0
 10
-1032.19197660212
 20
455.8559226785018
 30
0.0
 10
-1033.506410534806
 20
455.6186144582078
 30
0.0
 10
-1035.464082540291
 20
455.4302521599546
 30
0.0
 10
-1037.761696827707
 20
455.3227439642792
 30
0.0
 10
-1040.142386751458
 20
455.3123625843196
 30
0.0
 10
-1042.091841593528
 20
455.3839447449421
 30
0.0
 10
-1043.060485175271
 20
455.4683248639068
 30
0.0
 10
-1043.430638307259
 20
455.5005695056933
 30
0.0
  0
LINE
  5
D3
330
1F
100
AcDbEntity
  8
0
  6
Continuous
 62
     7
370
    25
100
AcDbLine
 10
-665.6319791364
 20
461.2504406707
 30
0.0
 11
-679.6319791364
 21
461.2504406707
 31
0.0
  0
LINE
  5
D4
330
1F
100
AcDbEntity
  8
0
  6
Continuous
 62
     7
370
    25
100
AcDbLine
 10
-1031.6319791364
 20
461.2504406707
 30
0.0
 11
-1045.6319791364
 21
461.2504406707
 31
0.0
  0
LINE
  5
D5
330
1F
100
AcDbEntity
  8
0
  6
Continuous
 62
     1
370
    25
100
AcDbLine
 10
-843.1319791364
 20
458.7504406707
 30
0.0
 11
-843.1319791364
 21
-236.2495593293
 31
0.0
  0
LINE
  5
D6
330
1F
100
AcDbEntity
  8
0
  6
Continuous
 62
     1
370
    25
100
AcDbLine
 10
-868.1319791364
 20
458.7504406707
 30
0.0
 11
-868.1319791364
 21
-236.2495593293
 31
0.0
  0
ARC
  5
D7
330
1F
100
AcDbEntity
  8
0
  6
Continuous
 62
     7
370
    25
100
AcDbCircle
 10
-16165.2809161557
 20
-783.1725757936
 30
0.0
 40
16653.62500000025
100
AcDbArc
 50
0.0
 51
0.6278926696
  0
ARC
  5
D8
330
1F
100
AcDbEntity
  8
0
  6
Continuous
 62
     7
370
    25
100
AcDbCircle
 10
16446.9690838448
 20
-783.1725757936
 30
0.0
 40
16653.62500000026
100
AcDbArc
 50
179.3721073304
 51
180.0
  0
LINE
  5
D9
330
1F
100
AcDbEntity
  8
0
  6
Continuous
 62
     7
370
    25
100
AcDbLine
 10
-206.6559161555
 20
-783.1725757936
 30
0.0
 11
-206.6559161555
 21
-808.1725757936
 31
0.0
  0
LINE
  5
DA
330
1F
100
AcDbEntity
  8
0
  6
Continuous
 62
     7
370
    25
100
AcDbLine
 10
488.3440838445
 20
-808.1725757936
 30
0.0
 11
488.3440838445
 21
-783.1725757936
 31
0.0
  0
ARC
  5
DB
330
1F
100
AcDbEntity
  8
0
  6
Continuous
 62
     7
370
    25
100
AcDbCircle
 10
-16165.2809161557
 20
-808.1725757936
 30
0.0
 40
16653.62500000025
100
AcDbArc
 50
359.3721073304
 51
0.0
  0
ARC
  5
DC
330
1F
100
AcDbEntity
  8
0
  6
Continuous
 62
     7
370
    25
100
AcDbCircle
 10
16446.9690838448
 20
-808.1725757936
 30
0.0
 40
16653.62500000025
100
AcDbArc
 50
180.0
 51
180.6278926696
  0
CIRCLE
  5
DD
330
1F
100
AcDbEntity
  8
0
  6
Continuous
 62
     7
370
    25
100
AcDbCircle
 10
175.8440838445
 20
-612.6725757936
 30
0.0
 40
7.0
  0
CIRCLE
  5
DE
330
1F
100
AcDbEntity
  8
0
  6
Continuous
 62
     7
370
    25
100
AcDbCircle
 10
175.8440838445
 20
-612.6725757936
 30
0.0
 40
5.0
  0
CIRCLE
  5
DF
330
1F
100
AcDbEntity
  8
0
  6
Continuous
 62
     7
370
    25
100
AcDbCircle
 10
105.8440838445
 20
-612.6725757936
 30
0.0
 40
5.0
  0
CIRCLE
  5
E0
330
1F
100
AcDbEntity
  8
0
  6
Continuous
 62
     7
370
    25
100
AcDbCircle
 10
105.8440838445
 20
-612.6725757936
 30
0.0
 40
7.0
  0
CIRCLE
  5
E1
330
1F
100
AcDbEntity
  8
0
  6
Continuous
 62
     7
370
    25
100
AcDbCircle
 10
175.8440838445
 20
-978.6725757936
 30
0.0
 40
7.0
  0
CIRCLE
  5
E2
330
1F
100
AcDbEntity
  8
0
  6
Continuous
 62
     7
370
    25
100
AcDbCircle
 10
175.8440838445
 20
-978.6725757936
 30
0.0
 40
5.0
  0
CIRCLE
  5
E3
330
1F
100
AcDbEntity
  8
0
  6
Continuous
 62
     7
370
    25
100
AcDbCircle
 10
105.8440838445
 20
-978.6725757936
 30
0.0
 40
5.0
  0
CIRCLE
  5
E4
330
1F
100
AcDbEntity
  8
0
  6
Continuous
 62
     7
370
    25
100
AcDbCircle
 10
105.8440838445
 20
-978.6725757936
 30
0.0
 40
7.0
  0
LINE
  5
E5
330
1F
100
AcDbEntity
  8
0
  6
Continuous
 62
     7
370
    25
100
AcDbLine
 10
-205.6559161555
 20
-600.6725757936
 30
0.0
 11
487.3440838445
 21
-600.6725757936
 31
0.0
  0
LINE
  5
E6
330
1F
100
AcDbEntity
  8
0
  6
Continuous
 62
     7
370
    25
100
AcDbLine
 10
-205.6559161555
 20
-990.6725757936
 30
0.0
 11
487.3440838445
 21
-990.6725757936
 31
0.0
  0
LINE
  5
E7
330
1F
100
AcDbEntity
  8
0
  6
Continuous
 62
     1
370
    25
100
AcDbLine
 10
-206.6559161555
 20
-783.1725757936
 30
0.0
 11
488.3440838445
 21
-783.1725757936
 31
0.0
  0
LINE
  5
E8
330
1F
100
AcDbEntity
  8
0
  6
Continuous
 62
     1
370
    25
100
AcDbLine
 10
-206.6559161555
 20
-808.1725757936
 30
0.0
 11
488.3440838445
 21
-808.1725757936
 31
0.0
  0
INSERT
  5
F4
330
1F
100
AcDbEntity
  8
FORMAT
 62
     7
100
AcDbBlockReference
  2
SW_CENTERMARKSYMBOL_1
 10
140.8440838445
 20
-762.6725757936
 30
0.0
  0
INSERT
  5
100
330
1F
100
AcDbEntity
  8
FORMAT
 62
     7
100
AcDbBlockReference
  2
SW_CENTERMARKSYMBOL_2
 10
140.8440838445
 20
-828.6725757936
 30
0.0
  0
SPLINE
  5
101
330
1F
100
AcDbEntity
  8
0
  6
Continuous
 62
     7
370
    25
100
AcDbSpline
210
0.0
220
0.0
230
1.0
 70
     8
 71
     3
 72
    11
 73
     7
 74
     0
 42
0.00000001
 43
0.00000001
 40
0.0
 40
0.0
 40
0.0
 40
0.0
 40
0.1096233879932553
 40
0.5049690667004704
 40
0.9002941653305478
 40
0.9999999999999999
 40
0.9999999999999999
 40
0.9999999999999999
 40
0.9999999999999999
 10
922.2050656930404
 20
-561.88060207392
 30
0.0
 10
917.4354773198027
 20
-564.6230978037322
 30
0.0
 10
895.4648501254718
 20
-577.2561274378694
 30
0.0
 10
856.4626957648786
 20
-600.070038103188
 30
0.0
 10
817.9374302490139
 20
-622.712483305556
 30
0.0
 10
796.61382896645
 20
-635.4593873608075
 30
0.0
 10
792.318971168644
 20
-638.0267839067346
 30
0.0
  0
SPLINE
  5
102
330
1F
100
AcDbEntity
  8
0
  6
Continuous
 62
     7
370
    25
100
AcDbSpline
210
0.0
220
0.0
230
1.0
 70
     8
 71
     3
 72
    10
 73
     6
 74
     0
 42
0.00000001
 43
0.00000001
 40
0.0
 40
0.0
 40
0.0
 40
0.0
 40
0.3188911101389486
 40
0.7142617680312024
 40
1.0
 40
1.0
 40
1.0
 40
1.0
 10
1138.753659946528
 20
-1238.133206104795
 30
0.0
 10
1152.714285794153
 20
-1230.308765348612
 30
0.0
 10
1183.983709693747
 20
-1212.78335083978
 30
0.0
 10
1227.613166869169
 20
-1187.977125651068
 30
0.0
 10
1257.223140388978
 20
-1170.895751668279
 30
0.0
 10
1269.645091721781
 20
-1163.729787937523
 30
0.0
  0
LINE
  5
103
330
1F
100
AcDbEntity
  8
0
  6
Continuous
 62
     7
370
    25
100
AcDbLine
 10
939.8668508405
 20
-551.6481240638
 30
0.0
 11
922.1891813108
 21
-561.8532254616
 31
0.0
  0
LINE
  5
104
330
1F
100
AcDbEntity
  8
0
  6
Continuous
 62
     7
370
    25
100
AcDbLine
 10
1269.6609409018
 20
-1163.7571848162
 30
0.0
 11
1287.3386104315
 21
-1153.5520834184
 31
0.0
  0
SPLINE
  5
105
330
1F
100
AcDbEntity
  8
0
  6
Continuous
 62
     7
370
    25
100
AcDbSpline
210
0.0
220
0.0
230
1.0
 70
     8
 71
     3
 72
    10
 73
     6
 74
     0
 42
0.00000001
 43
0.00000001
 40
0.0
 40
0.0
 40
0.0
 40
0.0
 40
0.3188951506410791
 40
0.7142636196922443
 40
1.0
 40
1.0
 40
1.0
 40
1.0
 10
1070.77489394369
 20
-477.2716747018854
 30
0.0
 10
1056.814013853015
 20
-485.0962577973684
 30
0.0
 10
1025.544335629283
 20
-502.6218144987704
 30
0.0
 10
981.9146365816509
 20
-527.4281764230701
 30
0.0
 10
952.3046748165486
 20
-544.509543689995
 30
0.0
 10
939.8827352227037
 20
-551.6755006761366
 30
0.0
  0
SPLINE
  5
106
330
1F
100
AcDbEntity
  8
0
  6
Continuous
 62
     7
370
    25
100
AcDbSpline
210
0.0
220
0.0
230
1.0
 70
     8
 71
     3
 72
    11
 73
     7
 74
     0
 42
0.00000001
 43
0.00000001
 40
0.0
 40
0.0
 40
0.0
 40
0.0
 40
0.1096229416653302
 40
0.5049679835996858
 40
0.9002924454958098
 40
1.0
 40
1.0
 40
1.0
 40
1.0
 10
1287.322761251449
 20
-1153.524686539737
 30
0.0
 10
1292.092337884139
 20
-1150.782197552719
 30
0.0
 10
1314.06295332508
 20
-1138.149174639993
 30
0.0
 10
1353.065096041445
 20
-1115.335270878724
 30
0.0
 10
1391.59044268078
 20
-1092.692777461205
 30
0.0
 10
1412.914124869315
 20
-1079.945824829802
 30
0.0
 10
1417.209063648232
 20
-1077.378379832002
 30
0.0
  0
LINE
  5
107
330
1F
100
AcDbEntity
  8
0
  6
Continuous
 62
     7
370
    25
100
AcDbLine
 10
1007.1120922555
 20
-665.4999181603
 30
0.0
 11
1007.1120922555
 21
-660.9018544687
 31
0.0
  0
LINE
  5
108
330
1F
100
AcDbEntity
  8
0
  6
Continuous
 62
     7
370
    25
100
AcDbLine
 10
993.1120922555
 20
-660.9018544687
 30
0.0
 11
993.1120922555
 21
-664.7675791216
 31
0.0
  0
LINE
  5
109
330
1F
100
AcDbEntity
  8
0
  6
Continuous
 62
     7
370
    25
100
AcDbLine
 10
957.6146175725
 20
-636.1126805204
 30
0.0
 11
957.6146175725
 21
-632.3275705549
 31
0.0
  0
LINE
  5
10A
330
1F
100
AcDbEntity
  8
0
  6
Continuous
 62
     7
370
    25
100
AcDbLine
 10
943.6146175725
 20
-632.3275705549
 30
0.0
 11
943.6146175725
 21
-637.0068227567
 31
0.0
  0
LINE
  5
10B
330
1F
100
AcDbEntity
  8
0
  6
Continuous
 62
     7
370
    25
100
AcDbLine
 10
1265.9131741698
 20
-516.1799809737
 30
0.0
 11
1265.9131741698
 21
-511.4991700051
 31
0.0
  0
LINE
  5
10C
330
1F
100
AcDbEntity
  8
0
  6
Continuous
 62
     7
370
    25
100
AcDbLine
 10
1251.9131741698
 20
-511.4991700051
 30
0.0
 11
1251.9131741698
 21
-515.2826074057
 31
0.0
  0
LINE
  5
10D
330
1F
100
AcDbEntity
  8
0
  6
Continuous
 62
     7
370
    25
100
AcDbLine
 10
1216.4156994867
 20
-486.7919799631
 30
0.0
 11
1216.4156994867
 21
-482.9248860913
 31
0.0
  0
LINE
  5
10E
330
1F
100
AcDbEntity
  8
0
  6
Continuous
 62
     7
370
    25
100
AcDbLine
 10
1202.4156994867
 20
-482.9248860913
 30
0.0
 11
1202.4156994867
 21
-487.5206086106
 31
0.0
  0
LWPOLYLINE
  5
10F
330
1F
100
AcDbEntity
  8
0
  6
Continuous
 62
     7
370
    25
100
AcDbPolyline
 90
      198
 70
   128
 43
0.0
 10
721.8655738586
 20
-795.8597399694
 10
721.9901826587
 20
-786.9092944868
 10
722.3638823116
 20
-778.1118233226
 10
722.9862927038
 20
-769.4762749372
 10
723.8567807427
 20
-761.0114330892
 10
724.9744610002
 20
-752.7259079009
 10
726.3381966136
 20
-744.6281271001
 10
727.9466004417
 20
-736.7263274484
 10
729.798036476
 20
-729.0285463624
 10
731.8906215045
 20
-721.5426137386
 10
734.2222270277
 20
-714.2761439892
 10
736.7904814232
 20
-707.236528297
 10
739.5927723581
 20
-700.4309270971
 10
742.6262494464
 20
-693.8662627939
 10
745.8878271479
 20
-687.5492127198
 10
749.3741879072
 20
-681.4862023431
 10
753.0817855278
 20
-675.6833987324
 10
757.0068487794
 20
-670.1467042836
 10
761.1453852335
 20
-664.8817507165
 10
765.493185325
 20
-659.8938933458
 10
770.0458266332
 20
-655.1882056346
 10
774.7986783807
 20
-650.7694740334
 10
779.7469061437
 20
-646.6421931116
 10
784.8854767688
 20
-642.8105609857
 10
790.2091634933
 20
-639.2784750495
 10
795.7125512609
 20
-636.0495280094
 10
801.3900422304
 20
-633.1270042301
 10
807.2358614692
 20
-630.5138763942
 10
813.2440628275
 20
-628.2128024781
 10
819.4085349862
 20
-626.2261230485
 10
825.7230076737
 20
-624.555858882
 10
832.1810580432
 20
-623.203708909
 10
838.7761172061
 20
-622.1710484861
 10
845.5014769136
 20
-621.4589279973
 10
852.35029638
 20
-621.0680717849
 10
859.3156092409
 20
-620.9988774134
 10
866.3903306391
 20
-621.2514152646
 10
873.5672644312
 20
-621.8254284665
 10
880.8391105072
 20
-622.7203331542
 10
888.1984722158
 20
-623.935219064
 10
895.6378638879
 20
-625.468850459
 10
903.1497184511
 20
-627.3196673865
 10
910.7263951265
 20
-629.4857872644
 10
918.3601872003
 20
-631.9650067961
 10
926.0433298631
 20
-634.7548042117
 10
933.7680081082
 20
-637.8523418331
 10
941.5263646802
 20
-641.2544689602
 10
949.3105080673
 20
-644.9577250758
 10
957.1125205286
 20
-648.9583433657
 10
964.924466147
 20
-653.2522545497
 10
972.7383989022
 20
-657.8350910211
 10
980.5463707525
 20
-662.7021912891
 10
988.3404397193
 20
-667.8486047203
 10
996.1126779656
 20
-673.2690965746
 10
1003.8551798599
 20
-678.9581533291
 10
1011.5600700171
 20
-684.9099882871
 10
1019.2195113097
 20
-691.1185474634
 10
1026.8257128389
 20
-697.5775157425
 10
1034.3709378595
 20
-704.2803233023
 10
1041.8475116492
 20
-711.2201522961
 10
1049.2478293153
 20
-718.3899437882
 10
1056.56436353
 20
-725.7824049332
 10
1063.7896721869
 20
-733.3900163949
 10
1070.9164059708
 20
-741.2050399936
 10
1077.9373158331
 20
-749.2195265783
 10
1084.8452603656
 20
-757.4253241113
 10
1091.633213064
 20
-765.8140859605
 10
1098.2942694755
 20
-774.3772793895
 10
1104.8216542211
 20
-783.1061942365
 10
1111.2087278879
 20
-791.991951774
 10
1117.4489937822
 20
-801.02551374
 10
1123.5361045378
 20
-810.1976915313
 10
1129.4638685718
 20
-819.4991555499
 10
1135.2262563834
 20
-828.9204446926
 10
1140.817406686
 20
-838.4519759745
 10
1146.2316323694
 20
-848.0840542766
 10
1151.4634262847
 20
-857.8068822072
 10
1156.5074668459
 20
-867.6105700674
 10
1161.3586234424
 20
-877.4851459105
 10
1166.0119616582
 20
-887.4205656854
 10
1170.4627482908
 20
-897.4067234527
 10
1174.7064561656
 20
-907.4334616642
 10
1178.7387687408
 20
-917.4905814948
 10
1182.5555844981
 20
-927.5678532162
 10
1186.1530211145
 20
-937.6550266027
 10
1189.5274194113
 20
-947.7418413566
 10
1192.675347076
 20
-957.8180375452
 10
1195.5936021537
 20
-967.8733660366
 10
1198.279216304
 20
-977.8975989247
 10
1200.7294578199
 20
-987.8805399328
 10
1202.9418344071
 20
-997.8120347845
 10
1204.9140957183
 20
-1007.6819815328
 10
1206.6442356427
 20
-1017.4803408351
 10
1208.1304943464
 20
-1027.1971461646
 10
1209.3713600621
 20
-1036.8225139486
 10
1210.3655706277
 20
-1046.3466536209
 10
1211.1121147689
 20
-1055.7598775811
 10
1211.6102331289
 20
-1065.0526110477
 10
1211.8594190402
 20
-1074.2154017982
 10
1211.8594190402
 20
-1083.2389297825
 10
1211.6102331289
 20
-1092.1140166036
 10
1211.1121147689
 20
-1100.8316348535
 10
1210.3655706277
 20
-1109.3829172951
 10
1209.3713600621
 20
-1117.7591658821
 10
1208.1304943464
 20
-1125.9518606059
 10
1206.6442356427
 20
-1133.9526681623
 10
1204.9140957183
 20
-1141.7534504274
 10
1202.9418344071
 20
-1149.3462727358
 10
1200.7294578199
 20
-1156.723411951
 10
1198.279216304
 20
-1163.8773643214
 10
1195.5936021537
 20
-1170.8008531128
 10
1192.675347076
 20
-1177.48683601
 10
1189.5274194113
 20
-1183.9285122799
 10
1186.1530211145
 20
-1190.119329689
 10
1182.5555844981
 20
-1196.0529911682
 10
1178.7387687408
 20
-1201.7234612176
 10
1174.7064561656
 20
-1207.1249720462
 10
1170.4627482908
 20
-1212.2520294381
 10
1166.0119616582
 20
-1217.0994183412
 10
1161.3586234424
 20
-1221.6622081718
 10
1156.5074668459
 20
-1225.9357578298
 10
1151.4634262847
 20
-1229.9157204196
 10
1146.2316323694
 20
-1233.5980476712
 10
1140.817406686
 20
-1236.9789940583
 10
1135.2262563834
 20
-1240.055120608
 10
1129.4638685718
 20
-1242.8232983989
 10
1123.5361045378
 20
-1245.2807117435
 10
1117.4489937822
 20
-1247.4248610523
 10
1111.2087278879
 20
-1249.2535653764
 10
1104.8216542211
 20
-1250.7649646258
 10
1098.2942694755
 20
-1251.9575214614
 10
1091.633213064
 20
-1252.8300228587
 10
1084.8452603656
 20
-1253.3815813419
 10
1077.9373158331
 20
-1253.6116358861
 10
1070.9164059708
 20
-1253.5199524884
 10
1063.7896721869
 20
-1253.1066244058
 10
1056.56436353
 20
-1252.3720720601
 10
1049.2478293153
 20
-1251.3170426107
 10
1041.8475116492
 20
-1249.9426091944
 10
1034.3709378595
 20
-1248.2501698337
 10
1026.8257128389
 20
-1246.2414460148
 10
1019.2195113097
 20
-1243.918480937
 10
1011.5600700171
 20
-1241.283637434
 10
1003.8551798599
 20
-1238.3395955705
 10
996.1126779656
 20
-1235.0893499164
 10
988.3404397193
 20
-1231.5362065006
 10
980.5463707525
 20
-1227.6837794485
 10
972.7383989022
 20
-1223.5359873055
 10
964.924466147
 20
-1219.0970490516
 10
957.1125205286
 20
-1214.3714798096
 10
949.3105080673
 20
-1209.3640862527
 10
941.5263646802
 20
-1204.0799617153
 10
933.7680081082
 20
-1198.5244810125
 10
926.0433298631
 20
-1192.7032949724
 10
918.3601872003
 20
-1186.622324689
 10
910.7263951265
 20
-1180.2877554991
 10
903.1497184511
 20
-1173.7060306908
 10
895.6378638879
 20
-1166.8838449496
 10
888.1984722158
 20
-1159.8281375492
 10
880.8391105072
 20
-1152.5460852927
 10
873.5672644312
 20
-1145.0450952127
 10
866.3903306391
 20
-1137.3327970373
 10
859.3156092409
 20
-1129.4170354293
 10
852.35029638
 20
-1121.305862007
 10
845.5014769136
 20
-1113.0075271541
 10
838.7761172061
 20
-1104.5304716283
 10
832.1810580432
 20
-1095.883317975
 10
825.7230076737
 20
-1087.0748617573
 10
819.4085349862
 20
-1078.1140626091
 10
813.2440628275
 20
-1069.0100351221
 10
807.2358614692
 20
-1059.7720395743
 10
801.3900422304
 20
-1050.4094725111
 10
795.7125512609
 20
-1040.9318571875
 10
790.2091634932
 20
-1031.3488338812
 10
784.8854767688
 20
-1021.6701500869
 10
779.7469061437
 20
-1011.9056506019
 10
774.7986783807
 20
-1002.0652675118
 10
770.0458266331
 20
-992.1590100881
 10
765.493185325
 20
-982.1969546074
 10
761.1453852335
 20
-972.189234102
 10
757.0068487794
 20
-962.1460280528
 10
753.0817855278
 20
-952.0775520355
 10
749.3741879072
 20
-941.9940473293
 10
745.8878271479
 20
-931.9057705001
 10
742.6262494464
 20
-921.8229829678
 10
739.5927723581
 20
-911.7559405687
 10
736.7904814232
 20
-901.714883124
 10
734.2222270277
 20
-891.7100240238
 10
731.8906215045
 20
-881.7515398384
 10
729.798036476
 20
-871.8495599676
 10
727.9466004417
 20
-862.014156337
 10
726.3381966136
 20
-852.2553331532
 10
724.9744610002
 20
-842.5830167282
 10
723.8567807427
 20
-833.0070453824
 10
722.9862927038
 20
-823.5371594377
 10
722.3638823116
 20
-814.1829913097
 10
721.9901826587
 20
-804.9540557103
 10
721.8655738586
 20
-795.8597399694
  0
SPLINE
  5
110
330
1F
100
AcDbEntity
  8
0
  6
Continuous
 62
     7
370
    25
100
AcDbSpline
210
0.0
220
0.0
230
1.0
 70
     8
 71
     3
 72
    13
 73
     9
 74
     0
 42
0.00000001
 43
0.00000001
 40
0.0
 40
0.0
 40
0.0
 40
0.0
 40
0.1947481418801443
 40
0.389473652340788
 40
0.5847548447314295
 40
0.7806282979566623
 40
0.9765624268537795
 40
1.0
 40
1.0
 40
1.0
 40
1.0
 10
951.7407046018133
 20
-640.1189651643613
 30
0.0
 10
950.9496582874168
 20
-640.1897746435749
 30
0.0
 10
949.3676575850516
 20
-640.3313853733276
 30
0.0
 10
947.1091763582326
 20
-640.0120432840733
 30
0.0
 10
945.2327318244928
 20
-639.3407879205103
 30
0.0
 10
944.0392268430608
 20
-638.3525222713134
 30
0.0
 10
943.5154574496897
 20
-637.5204264862114
 30
0.0
 10
943.6431528229747
 20
-637.0592415028816
 30
0.0
 10
943.656795738738
 20
-637.0099687084418
 30
0.0
  0
SPLINE
  5
111
330
1F
100
AcDbEntity
  8
0
  6
Continuous
 62
     7
370
    25
100
AcDbSpline
210
0.0
220
0.0
230
1.0
 70
     8
 71
     3
 72
    12
 73
     8
 74
     0
 42
0.00000001
 43
0.00000001
 40
0.0
 40
0.0
 40
0.0
 40
0.0
 40
0.1358347808916493
 40
0.3749259268396112
 40
0.6134137132342928
 40
0.8517615415942885
 40
1.0
 40
1.0
 40
1.0
 40
1.0
 10
957.5164857020386
 20
-636.1114260994898
 30
0.0
 10
957.5300607972817
 20
-636.3487156595469
 30
0.0
 10
957.5675302519571
 20
-637.003673157544
 30
0.0
 10
956.7533320302538
 20
-638.0757412170478
 30
0.0
 10
955.247999612002
 20
-639.1334989284692
 30
0.0
 10
953.4514053104084
 20
-639.8174728323562
 30
0.0
 10
952.214862983835
 20
-640.0353999237453
 30
0.0
 10
951.7407046018133
 20
-640.1189651643613
 30
0.0
  0
SPLINE
  5
112
330
1F
100
AcDbEntity
  8
0
  6
Continuous
 62
     7
370
    25
100
AcDbSpline
210
0.0
220
0.0
230
1.0
 70
     8
 71
     3
 72
    12
 73
     8
 74
     0
 42
0.00000001
 43
0.00000001
 40
0.0
 40
0.0
 40
0.0
 40
0.0
 40
0.2111617933620499
 40
0.4222924291296405
 40
0.6340938753724523
 40
0.846041862221067
 40
0.9999999999999999
 40
0.9999999999999999
 40
0.9999999999999999
 40
0.9999999999999999
 10
1000.322597483884
 20
-669.6360452925865
 30
0.0
 10
999.5314087805025
 20
-669.5530451787
 30
0.0
 10
997.9491481161493
 20
-669.3870571978583
 30
0.0
 10
995.8099491640695
 20
-668.5253141673383
 30
0.0
 10
994.1843406365053
 20
-667.3254220630594
 30
0.0
 10
993.2237402172666
 20
-666.0017311002284
 30
0.0
 10
993.2009792035856
 20
-665.130585505766
 30
0.0
 10
993.1914023120157
 20
-664.7640435311152
 30
0.0
  0
SPLINE
  5
113
330
1F
100
AcDbEntity
  8
0
  6
Continuous
 62
     7
370
    25
100
AcDbSpline
210
0.0
220
0.0
230
1.0
 70
     8
 71
     3
 72
    12
 73
     8
 74
     0
 42
0.00000001
 43
0.00000001
 40
0.0
 40
0.0
 40
0.0
 40
0.0
 40
0.2117831609279663
 40
0.4309961623377653
 40
0.6487413679997858
 40
0.8657715952248807
 40
1.0
 40
1.0
 40
1.0
 40
1.0
 10
1007.096860217447
 20
-665.4985342379227
 30
0.0
 10
1007.031189896193
 20
-665.989528634212
 30
0.0
 10
1006.897545387743
 20
-666.9887426397203
 30
0.0
 10
1005.72407017553
 20
-668.2773661666307
 30
0.0
 10
1003.971968376317
 20
-669.2102677260921
 30
0.0
 10
1002.056553001873
 20
-669.6394939068407
 30
0.0
 10
1000.802004894382
 20
-669.6369987721955
 30
0.0
 10
1000.322597483884
 20
-669.6360452925865
 30
0.0
  0
LWPOLYLINE
  5
114
330
1F
100
AcDbEntity
  8
0
  6
Continuous
 62
     7
370
    25
100
AcDbPolyline
 90
      178
 70
   128
 43
0.0
 10
768.8881748075
 20
-823.0053096876
 10
769.0129075973
 20
-814.9630116359
 10
769.3869488045
 20
-807.0748602246
 10
770.0098271402
 20
-799.3507944572
 10
770.8807577832
 20
-791.8005465904
 10
771.9986433683
 20
-784.433629872
 10
773.3620753692
 20
-777.2593265541
 10
774.9693358732
 20
-770.2866761975
 10
776.8183997459
 20
-763.524464282
 10
778.9069371825
 20
-756.9812111368
 10
781.2323166438
 20
-750.6651612051
 10
783.7916081715
 20
-744.5842726555
 10
786.5815870802
 20
-738.7462073559
 10
789.5987380203
 20
-733.1583212184
 10
792.8392594074
 20
-727.8276549319
 10
796.2990682123
 20
-722.7609250903
 10
799.9738051054
 20
-717.9645157299
 10
803.8588399498
 20
-713.4444702855
 10
807.9492776346
 20
-709.2064839757
 10
812.2399642435
 20
-705.2558966269
 10
816.7254935479
 20
-701.5976859456
 10
821.4002138193
 20
-698.2364612458
 10
826.2582349501
 20
-695.176457642
 10
831.2934358753
 20
-692.4215307125
 10
836.4994722847
 20
-689.9751516417
 10
841.8697846169
 20
-687.8404028463
 10
847.3976063243
 20
-686.0199740916
 10
853.0759723989
 20
-684.5161591022
 10
858.8977281478
 20
-683.3308526721
 10
864.8555382088
 20
-682.4655482774
 10
870.941895792
 20
-681.9213361941
 10
877.1491321389
 20
-681.6989021248
 10
883.4694261848
 20
-681.7985263346
 10
889.8948144132
 20
-682.2200832977
 10
896.4172008899
 20
-682.9630418561
 10
903.0283674636
 20
-684.0264658883
 10
909.7199841212
 20
-685.4090154891
 10
916.4836194827
 20
-687.1089486578
 10
923.3107514254
 20
-689.1241234932
 10
930.1927778215
 20
-691.4520008922
 10
937.1210273766
 20
-694.0896477492
 10
944.0867705554
 20
-697.0337406517
 10
951.0812305811
 20
-700.2805700678
 10
958.0955944938
 20
-703.8260450202
 10
965.1210242551
 20
-707.6656982408
 10
972.1486678834
 20
-711.7946917994
 10
979.169670608
 20
-716.2078231993
 10
986.1751860253
 20
-720.8995319328
 10
993.1563872458
 20
-725.8639064869
 10
1000.1044780158
 20
-731.0946917922
 10
1007.0107038003
 20
-736.5852971039
 10
1013.8663628137
 20
-742.3288043063
 10
1020.6628169844
 20
-748.3179766293
 10
1027.3915028382
 20
-754.5452677671
 10
1034.0439422885
 20
-761.0028313861
 10
1040.6117533184
 20
-767.6825310113
 10
1047.0866605423
 20
-774.5759502783
 10
1053.4605056323
 20
-781.6744035378
 10
1059.7252575981
 20
-788.9689467993
 10
1065.8730229059
 20
-796.4503890008
 10
1071.8960554238
 20
-804.1093035889
 10
1077.7867661825
 20
-811.9360403969
 10
1083.5377329368
 20
-819.9207378032
 10
1089.1417095176
 20
-828.0533351574
 10
1094.5916349625
 20
-836.3235854564
 10
1099.8806424119
 20
-844.7210682554
 10
1105.0020677617
 20
-853.235202798
 10
1109.9494580597
 20
-861.8552613475
 10
1114.7165796365
 20
-870.5703827037
 10
1119.2974259597
 20
-879.3695858883
 10
1123.686225202
 20
-888.2417839804
 10
1127.8774475138
 20
-897.1757980864
 10
1131.8658119911
 20
-906.1603714249
 10
1135.6462933285
 20
-915.1841835102
 10
1139.2141281519
 20
-924.2358644164
 10
1142.56482102
 20
-933.3040091028
 10
1145.6941500885
 20
-942.3771917846
 10
1148.5981724293
 20
-951.4439803294
 10
1151.2732289992
 20
-960.4929506609
 10
1153.7159492498
 20
-969.5127011541
 10
1155.9232553745
 20
-978.4918670003
 10
1157.8923661865
 20
-987.4191345274
 10
1159.6208006228
 20
-996.2832554546
 10
1161.106380871
 20
-1005.0730610654
 10
1162.3472351126
 20
-1013.7774762798
 10
1163.3417998818
 20
-1022.385533609
 10
1164.0888220357
 20
-1030.8863869745
 10
1164.5873603326
 20
-1039.2693253737
 10
1164.8367866185
 20
-1047.5237863759
 10
1164.8367866185
 20
-1055.6393694308
 10
1164.5873603326
 20
-1063.6058489731
 10
1164.0888220357
 20
-1071.4131873067
 10
1163.3417998818
 20
-1079.0515472521
 10
1162.3472351126
 20
-1086.511304541
 10
1161.106380871
 20
-1093.7830599431
 10
1159.6208006228
 20
-1100.8576511087
 10
1157.8923661865
 20
-1107.7261641134
 10
1155.9232553745
 20
-1114.3799446896
 10
1153.7159492498
 20
-1120.8106091306
 10
1151.2732289992
 20
-1127.0100548542
 10
1148.5981724293
 20
-1132.9704706119
 10
1145.6941500885
 20
-1138.6843463306
 10
1142.56482102
 20
-1144.144482576
 10
1139.2141281519
 20
-1149.3439996229
 10
1135.6462933285
 20
-1154.2763461244
 10
1131.8658119911
 20
-1158.935307366
 10
1127.8774475138
 20
-1163.3150130964
 10
1123.686225202
 20
-1167.4099449239
 10
1119.2974259597
 20
-1171.2149432693
 10
1114.7165796365
 20
-1174.7252138673
 10
1109.9494580597
 20
-1177.9363338069
 10
1105.0020677617
 20
-1180.8442571044
 10
1099.8806424119
 20
-1183.4453198014
 10
1094.5916349625
 20
-1185.7362445811
 10
1089.1417095176
 20
-1187.7141448979
 10
1083.5377329368
 20
-1189.3765286142
 10
1077.7867661825
 20
-1190.7213011409
 10
1071.8960554238
 20
-1191.7467680759
 10
1065.8730229059
 20
-1192.4516373399
 10
1059.7252575981
 20
-1192.8350208034
 10
1053.4605056323
 20
-1192.8964354067
 10
1047.0866605423
 20
-1192.6358037678
 10
1040.6117533184
 20
-1192.0534542803
 10
1034.0439422885
 20
-1191.1501206998
 10
1027.3915028382
 20
-1189.9269412186
 10
1020.6628169844
 20
-1188.3854570327
 10
1013.8663628137
 20
-1186.5276103987
 10
1007.0107038003
 20
-1184.3557421876
 10
1000.1044780158
 20
-1181.8725889349
 10
993.1563872458
 20
-1179.0812793922
 10
986.1751860253
 20
-1175.9853305859
 10
979.169670608
 20
-1172.5886433849
 10
972.1486678834
 20
-1168.895497586
 10
965.1210242551
 20
-1164.9105465215
 10
958.0955944938
 20
-1160.6388111955
 10
951.0812305811
 20
-1156.0856739581
 10
944.0867705554
 20
-1151.2568717232
 10
937.1210273766
 20
-1146.1584887403
 10
930.1927778215
 20
-1140.7969489285
 10
923.3107514254
 20
-1135.1790077821
 10
916.4836194827
 20
-1129.3117438588
 10
909.7199841212
 20
-1123.2025498611
 10
903.0283674636
 20
-1116.8591233211
 10
896.4172008898
 20
-1110.2894569021
 10
889.8948144132
 20
-1103.5018283275
 10
883.4694261848
 20
-1096.5047899514
 10
877.1491321389
 20
-1089.3071579823
 10
870.941895792
 20
-1081.9180013749
 10
864.8555382088
 20
-1074.3466304033
 10
858.8977281478
 20
-1066.6025849303
 10
853.0759723988
 20
-1058.6956223869
 10
847.3976063243
 20
-1050.6357054784
 10
841.8697846169
 20
-1042.4329896311
 10
836.4994722847
 20
-1034.0978101968
 10
831.2934358753
 20
-1025.6406694304
 10
826.2582349501
 20
-1017.072223257
 10
821.4002138193
 20
-1008.4032678454
 10
816.7254935479
 20
-999.6447260054
 10
812.2399642435
 20
-990.8076334248
 10
807.9492776346
 20
-981.9031247646
 10
803.8588399498
 20
-972.9424196298
 10
799.9738051054
 20
-963.936808432
 10
796.2990682123
 20
-954.8976381645
 10
792.8392594074
 20
-945.8362981044
 10
789.5987380203
 20
-936.7642054629
 10
786.5815870802
 20
-927.692790999
 10
783.7916081715
 20
-918.6334846174
 10
781.2323166438
 20
-909.5977009666
 10
778.9069371825
 20
-900.596825057
 10
776.8183997459
 20
-891.642197915
 10
774.9693358732
 20
-882.7451022945
 10
773.3620753692
 20
-873.9167484597
 10
771.9986433683
 20
-865.168260061
 10
770.8807577832
 20
-856.510660119
 10
770.0098271402
 20
-847.9548571357
 10
769.3869488045
 20
-839.5116313495
 10
769.0129075973
 20
-831.1916211529
 10
768.8881748075
 20
-823.0053096876
  0
ARC
  5
115
330
1F
100
AcDbEntity
  8
0
  6
Continuous
 62
     7
370
    25
100
AcDbCircle
 10
1519.971726139
 20
-618.0082760647
 30
0.0
 40
481.8851477227357
100
AcDbArc
 50
204.2084777315
 51
215.7861457358
  0
LWPOLYLINE
  5
116
330
1F
100
AcDbEntity
  8
0
  6
Continuous
 62
     7
370
    25
100
AcDbPolyline
 90
       23
 70
   128
 43
0.0
 10
1070.7616198283
 20
-477.250863937
 10
1071.4841959236
 20
-476.8499462039
 10
1077.1616868932
 20
-473.9274224247
 10
1083.007506132
 20
-471.3142945888
 10
1089.0157074902
 20
-469.0132206727
 10
1095.180179649
 20
-467.0265412431
 10
1101.4946523365
 20
-465.3562770765
 10
1107.952702706
 20
-464.0041271035
 10
1114.5477618689
 20
-462.9714666807
 10
1121.2731215764
 20
-462.2593461919
 10
1128.1219410428
 20
-461.8684899795
 10
1135.0872539036
 20
-461.7992956079
 10
1142.1619753018
 20
-462.0518334592
 10
1149.338909094
 20
-462.6258466611
 10
1156.61075517
 20
-463.5207513488
 10
1163.9701168785
 20
-464.7356372585
 10
1171.4095085507
 20
-466.2692686536
 10
1178.9213631139
 20
-468.1200855811
 10
1186.4980397892
 20
-470.286205459
 10
1194.131831863
 20
-472.7654249907
 10
1201.8149745259
 20
-475.5552224063
 10
1209.539652771
 20
-478.6527600276
 10
1210.1397472084
 20
-478.9055473991
  0
LWPOLYLINE
  5
117
330
1F
100
AcDbEntity
  8
0
  6
Continuous
 62
     7
370
    25
100
AcDbPolyline
 90
       79
 70
   128
 43
0.0
 10
1215.9181929814
 20
-481.4286549701
 10
1217.298009343
 20
-482.0548871547
 10
1225.0821527301
 20
-485.7581432704
 10
1232.8841651913
 20
-489.7587615603
 10
1240.6961108098
 20
-494.0526727443
 10
1248.510043565
 20
-498.6355092156
 10
1256.3180154153
 20
-503.5026094836
 10
1264.1120843821
 20
-508.6490229149
 10
1271.8843226284
 20
-514.0695147692
 10
1279.6268245226
 20
-519.7585715237
 10
1287.3317146799
 20
-525.7104064817
 10
1294.9911559725
 20
-531.918965658
 10
1302.5973575017
 20
-538.3779339371
 10
1310.1425825222
 20
-545.0807414968
 10
1317.6191563119
 20
-552.0205704907
 10
1325.0194739781
 20
-559.1903619827
 10
1332.3360081928
 20
-566.5828231278
 10
1339.5613168497
 20
-574.1904345894
 10
1346.6880506335
 20
-582.0054581882
 10
1353.7089604959
 20
-590.0199447729
 10
1360.6169050284
 20
-598.2257423058
 10
1367.4048577268
 20
-606.6145041551
 10
1374.0659141382
 20
-615.1776975841
 10
1380.5932988838
 20
-623.9066124311
 10
1386.9803725506
 20
-632.7923699686
 10
1393.220638445
 20
-641.8259319346
 10
1399.3077492005
 20
-650.9981097259
 10
1405.2355132346
 20
-660.2995737445
 10
1410.9979010462
 20
-669.7208628872
 10
1416.5890513487
 20
-679.2523941691
 10
1422.0032770322
 20
-688.8844724712
 10
1427.2350709475
 20
-698.6073004018
 10
1432.2791115086
 20
-708.4109882619
 10
1437.1302681051
 20
-718.2855641051
 10
1441.7836063209
 20
-728.22098388
 10
1446.2343929535
 20
-738.2071416473
 10
1450.4781008283
 20
-748.2338798588
 10
1454.5104134036
 20
-758.2909996894
 10
1458.3272291609
 20
-768.3682714108
 10
1461.9246657773
 20
-778.4554447973
 10
1465.299064074
 20
-788.5422595512
 10
1468.4469917387
 20
-798.6184557398
 10
1471.3652468165
 20
-808.6737842312
 10
1474.0508609667
 20
-818.6980171193
 10
1476.5011024827
 20
-828.6809581274
 10
1478.7134790699
 20
-838.6124529791
 10
1480.6857403811
 20
-848.4823997274
 10
1482.4158803055
 20
-858.2807590296
 10
1483.9021390091
 20
-867.9975643592
 10
1485.1430047249
 20
-877.6229321432
 10
1486.1372152904
 20
-887.1470718155
 10
1486.8837594316
 20
-896.5602957756
 10
1487.3818777916
 20
-905.8530292423
 10
1487.631063703
 20
-915.0158199927
 10
1487.631063703
 20
-924.039347977
 10
1487.3818777916
 20
-932.9144347982
 10
1486.8837594316
 20
-941.6320530481
 10
1486.1372152904
 20
-950.1833354897
 10
1485.1430047249
 20
-958.5595840767
 10
1483.9021390091
 20
-966.7522788005
 10
1482.4158803055
 20
-974.7530863569
 10
1480.6857403811
 20
-982.553868622
 10
1478.7134790699
 20
-990.1466909304
 10
1476.5011024827
 20
-997.5238301455
 10
1474.0508609667
 20
-1004.6777825159
 10
1471.3652468165
 20
-1011.6012713074
 10
1468.4469917387
 20
-1018.2872542046
 10
1465.299064074
 20
-1024.7289304745
 10
1461.9246657773
 20
-1030.9197478836
 10
1458.3272291609
 20
-1036.8534093627
 10
1454.5104134036
 20
-1042.5238794122
 10
1450.4781008283
 20
-1047.9253902408
 10
1446.2343929535
 20
-1053.0524476327
 10
1441.7836063209
 20
-1057.8998365357
 10
1437.1302681051
 20
-1062.4626263663
 10
1432.2791115086
 20
-1066.7361760244
 10
1427.2350709475
 20
-1070.7161386141
 10
1422.0032770322
 20
-1074.3984658657
 10
1417.2228870321
 20
-1077.4048080456
  0
SPLINE
  5
118
330
1F
100
AcDbEntity
  8
0
  6
Continuous
 62
     7
370
    25
100
AcDbSpline
210
0.0
220
0.0
230
1.0
 70
     8
 71
     3
 72
    12
 73
     8
 74
     0
 42
0.00000001
 43
0.00000001
 40
0.0
 40
0.0
 40
0.0
 40
0.0
 40
0.2107557118525789
 40
0.4214884668829417
 40
0.6326602814557293
 40
0.8435476005875627
 40
1.0
 40
1.0
 40
1.0
 40
1.0
 10
1259.173858634438
 20
-520.1551690723062
 30
0.0
 10
1258.38112129708
 20
-520.0667617975738
 30
0.0
 10
1256.795732972243
 20
-519.8899568779791
 30
0.0
 10
1254.645707823985
 20
-519.0229660440464
 30
0.0
 10
1253.007145252058
 20
-517.8279551612457
 30
0.0
 10
1252.031594708215
 20
-516.5103624645682
 30
0.0
 10
1252.001791523091
 20
-515.6467818848512
 30
0.0
 10
1251.989098150751
 20
-515.2789772425488
 30
0.0
  0
SPLINE
  5
119
330
1F
100
AcDbEntity
  8
0
  6
Continuous
 62
     7
370
    25
100
AcDbSpline
210
0.0
220
0.0
230
1.0
 70
     8
 71
     3
 72
    12
 73
     8
 74
     0
 42
0.00000001
 43
0.00000001
 40
0.0
 40
0.0
 40
0.0
 40
0.0
 40
0.2087463661802772
 40
0.4282755066154637
 40
0.6466012182370318
 40
0.8646963502120855
 40
1.0
 40
1.0
 40
1.0
 40
1.0
 10
1265.892398512187
 20
-516.1781616255898
 30
0.0
 10
1265.831550561197
 20
-516.6511723613172
 30
0.0
 10
1265.706711563932
 20
-517.6216271586156
 30
0.0
 10
1264.552907895315
 20
-518.867400300352
 30
0.0
 10
1262.815663652192
 20
-519.7674558296404
 30
0.0
 10
1260.907993599523
 20
-520.1730541310905
 30
0.0
 10
1259.653976544342
 20
-520.1601207843788
 30
0.0
 10
1259.173858634438
 20
-520.1551690723062
 30
0.0
  0
SPLINE
  5
11A
330
1F
100
AcDbEntity
  8
0
  6
Continuous
 62
     7
370
    25
100
AcDbSpline
210
0.0
220
0.0
230
1.0
 70
     8
 71
     3
 72
    13
 73
     9
 74
     0
 42
0.00000001
 43
0.00000001
 40
0.0
 40
0.0
 40
0.0
 40
0.0
 40
0.1930712907076668
 40
0.3861196542056061
 40
0.579760988894382
 40
0.7742701647972347
 40
0.9692670563663837
 40
1.0
 40
1.0
 40
1.0
 40
1.0
 10
1210.611963628477
 20
-490.6384663346949
 30
0.0
 10
1209.82302690615
 20
-490.7033467292653
 30
0.0
 10
1208.245247147708
 20
-490.8330998138612
 30
0.0
 10
1205.98165678799
 20
-490.5108244645224
 30
0.0
 10
1204.092525367017
 20
-489.8482073488186
 30
0.0
 10
1202.871348645154
 20
-488.8802966135917
 30
0.0
 10
1202.327501702893
 20
-488.0521892079124
 30
0.0
 10
1202.452048828721
 20
-487.5874618270223
 30
0.0
 10
1202.469005824212
 20
-487.5241895511661
 30
0.0
  0
SPLINE
  5
11B
330
1F
100
AcDbEntity
  8
0
  6
Continuous
 62
     7
370
    25
100
AcDbSpline
210
0.0
220
0.0
230
1.0
 70
     8
 71
     3
 72
    12
 73
     8
 74
     0
 42
0.00000001
 43
0.00000001
 40
0.0
 40
0.0
 40
0.0
 40
0.0
 40
0.1282157293590922
 40
0.369734941263933
 40
0.6104395144796986
 40
0.8506338923061741
 40
1.0
 40
1.0
 40
1.0
 40
1.0
 10
1216.315819106669
 20
-486.791419993838
 30
0.0
 10
1216.33287821456
 20
-487.0083774874711
 30
0.0
 10
1216.382071463202
 20
-487.6340165300923
 30
0.0
 10
1215.59423547137
 20
-488.664519593498
 30
0.0
 10
1214.108754258395
 20
-489.6924416958819
 30
0.0
 10
1212.320722904727
 20
-490.3526383689217
 30
0.0
 10
1211.085554513196
 20
-490.5592477337663
 30
0.0
 10
1210.611963628477
 20
-490.6384663346948
 30
0.0
  0
LWPOLYLINE
  5
11C
330
1F
100
AcDbEntity
  8
0
  6
Continuous
 62
     7
370
    25
100
AcDbPolyline
 90
       29
 70
   128
 43
0.0
 10
1005.0618397238
 20
-658.0444260773
 10
1006.0391616501
 20
-658.7519054072
 10
1006.7192755677
 20
-659.5671921605
 10
1007.0680777248
 20
-660.449404455
 10
1007.0680777248
 20
-661.3543044824
 10
1006.7192755677
 20
-662.2365167769
 10
1006.0391616501
 20
-663.0518035301
 10
1005.0618397238
 20
-663.7592828601
 10
1003.8363167911
 20
-664.3234787989
 10
1002.4240456892
 20
-664.7161002063
 10
1000.8958435883
 20
-664.9174594055
 10
999.3283409228
 20
-664.9174594055
 10
997.8001388218
 20
-664.7161002063
 10
996.3878677199
 20
-664.3234787989
 10
995.1623447872
 20
-663.7592828601
 10
994.1850228609
 20
-663.0518035301
 10
993.5049089434
 20
-662.2365167769
 10
993.1561067863
 20
-661.3543044824
 10
993.1561067863
 20
-660.449404455
 10
993.5049089434
 20
-659.5671921605
 10
994.1850228609
 20
-658.7519054072
 10
995.1623447872
 20
-658.0444260773
 10
996.3878677199
 20
-657.4802301385
 10
997.8001388218
 20
-657.0876087311
 10
999.3283409228
 20
-656.8862495318
 10
1000.8958435883
 20
-656.8862495318
 10
1002.4240456892
 20
-657.0876087311
 10
1003.8363167911
 20
-657.4802301385
 10
1005.0618397238
 20
-658.0444260773
  0
LWPOLYLINE
  5
11D
330
1F
100
AcDbEntity
  8
0
  6
Continuous
 62
     7
370
    25
100
AcDbPolyline
 90
       24
 70
   128
 43
0.0
 10
1003.6476261615
 20
-658.8608341891
 10
1004.4703946057
 20
-659.487181439
 10
1004.9699277025
 20
-660.2184485157
 10
1005.1091773674
 20
-661.0004006856
 10
1004.8778160896
 20
-661.7750441334
 10
1004.2930028768
 20
-662.4849270984
 10
1003.3981106496
 20
-663.0774008085
 10
1002.2595094707
 20
-663.508524199
 10
1000.9616441807
 20
-663.7463228204
 10
999.6007715108
 20
-663.7731602366
 10
998.2778211615
 20
-663.5870460395
 10
997.0909103079
 20
-663.2017834674
 10
996.1280666985
 20
-662.645945683
 10
995.4607000388
 20
-661.9607566319
 10
995.1383058612
 20
-661.1970336515
 10
995.1847946669
 20
-660.4114185815
 10
995.5967185939
 20
-659.6621768977
 10
996.3435271289
 20
-659.0048764281
 10
997.3698328993
 20
-658.4882661417
 10
998.5995195011
 20
-658.1506606601
 10
999.9413867046
 20
-658.0170986374
 10
1001.2959143579
 20
-658.0974857578
 10
1002.5626433414
 20
-658.3858600764
 10
1003.6476261615
 20
-658.8608341891
  0
SPLINE
  5
11E
330
1F
100
AcDbEntity
  8
0
  6
Continuous
 62
     7
370
    25
100
AcDbSpline
210
0.0
220
0.0
230
1.0
 70
     8
 71
     3
 72
    13
 73
     9
 74
     0
 42
0.00000001
 43
0.00000001
 40
0.0
 40
0.0
 40
0.0
 40
0.0
 40
0.0186661013297447
 40
0.2267927420975734
 40
0.4346823826768463
 40
0.6427889722013035
 40
0.8515505368784718
 40
1.0
 40
1.0
 40
1.0
 40
1.0
 10
996.3835446031645
 20
-662.81965427248
 30
0.0
 10
996.4106922907548
 20
-662.7941757683083
 30
0.0
 10
996.7405361291366
 20
-662.4846124736699
 30
0.0
 10
997.7855667001949
 20
-662.1226689987412
 30
0.0
 10
999.3727708303351
 20
-661.8419510279949
 30
0.0
 10
1001.076042317002
 20
-661.959395130922
 30
0.0
 10
1002.551153773015
 20
-662.3503896297339
 30
0.0
 10
1003.250337656537
 20
-662.8096929277433
 30
0.0
 10
1003.540903915848
 20
-663.0005698119751
 30
0.0
  0
LWPOLYLINE
  5
11F
330
1F
100
AcDbEntity
  8
0
  6
Continuous
 62
     7
370
    25
100
AcDbPolyline
 90
       29
 70
   128
 43
0.0
 10
945.6648701042
 20
-635.1849989463
 10
944.6875481779
 20
-634.4775196163
 10
944.0074342603
 20
-633.6622328631
 10
943.6586321032
 20
-632.7800205686
 10
943.6586321032
 20
-631.8751205412
 10
944.0074342603
 20
-630.9929082467
 10
944.6875481779
 20
-630.1776214934
 10
945.6648701042
 20
-629.4701421635
 10
946.8903930369
 20
-628.9059462247
 10
948.3026641388
 20
-628.5133248173
 10
949.8308662397
 20
-628.311965618
 10
951.3983689052
 20
-628.311965618
 10
952.9265710062
 20
-628.5133248173
 10
954.3388421081
 20
-628.9059462247
 10
955.5643650408
 20
-629.4701421635
 10
956.5416869671
 20
-630.1776214934
 10
957.2218008846
 20
-630.9929082467
 10
957.5706030417
 20
-631.8751205412
 10
957.5706030417
 20
-632.7800205686
 10
957.2218008846
 20
-633.6622328631
 10
956.5416869671
 20
-634.4775196163
 10
955.5643650408
 20
-635.1849989463
 10
954.3388421081
 20
-635.7491948851
 10
952.9265710062
 20
-636.1418162925
 10
951.3983689052
 20
-636.3431754917
 10
949.8308662397
 20
-636.3431754917
 10
948.3026641388
 20
-636.1418162925
 10
946.8903930369
 20
-635.7491948851
 10
945.6648701042
 20
-635.1849989463
  0
LWPOLYLINE
  5
120
330
1F
100
AcDbEntity
  8
0
  6
Continuous
 62
     7
370
    25
100
AcDbPolyline
 90
       24
 70
   128
 43
0.0
 10
947.0790836665
 20
-634.3685908344
 10
946.2563152223
 20
-633.7422435846
 10
945.7567821255
 20
-633.0109765079
 10
945.6175324606
 20
-632.2290243379
 10
945.8488937384
 20
-631.4543808901
 10
946.4337069512
 20
-630.7444979252
 10
947.3285991784
 20
-630.1520242151
 10
948.4672003573
 20
-629.7209008246
 10
949.7650656473
 20
-629.4831022032
 10
951.1259383172
 20
-629.4562647869
 10
952.4488886665
 20
-629.6423789841
 10
953.6357995201
 20
-630.0276415561
 10
954.5986431296
 20
-630.5834793406
 10
955.2660097892
 20
-631.2686683916
 10
955.5884039668
 20
-632.032391372
 10
955.5419151611
 20
-632.818006442
 10
955.1299912341
 20
-633.5672481259
 10
954.3831826991
 20
-634.2245485955
 10
953.3568769287
 20
-634.7411588819
 10
952.1271903269
 20
-635.0787643635
 10
950.7853231234
 20
-635.2123263862
 10
949.4307954701
 20
-635.1319392658
 10
948.1640664866
 20
-634.8435649472
 10
947.0790836665
 20
-634.3685908344
  0
SPLINE
  5
121
330
1F
100
AcDbEntity
  8
0
  6
Continuous
 62
     7
370
    25
100
AcDbSpline
210
0.0
220
0.0
230
1.0
 70
     8
 71
     3
 72
    12
 73
     8
 74
     0
 42
0.00000001
 43
0.00000001
 40
0.0
 40
0.0
 40
0.0
 40
0.0
 40
0.0337061667344261
 40
0.2758009391705935
 40
0.5188005499782627
 40
0.7633164346521802
 40
1.0
 40
1.0
 40
1.0
 40
1.0
 10
947.6943079829354
 20
-634.6379299832347
 30
0.0
 10
947.7500766700923
 20
-634.6060303718397
 30
0.0
 10
948.2064043330802
 20
-634.3450115840549
 30
0.0
 10
949.3917094414393
 20
-634.0507028050282
 30
0.0
 10
951.054038853348
 20
-633.8491536994974
 30
0.0
 10
952.7165615779452
 20
-633.9476443786864
 30
0.0
 10
953.5896940175941
 20
-634.2477446648254
 30
0.0
 10
954.0191543979573
 20
-634.3953524928935
 30
0.0
  0
LWPOLYLINE
  5
122
330
1F
100
AcDbEntity
  8
0
  6
Continuous
 62
     7
370
    25
100
AcDbPolyline
 90
       29
 70
   128
 43
0.0
 10
1253.9634267015
 20
-514.3565983965
 10
1252.9861047752
 20
-513.6491190666
 10
1252.3059908576
 20
-512.8338323133
 10
1251.9571887006
 20
-511.9516200188
 10
1251.9571887006
 20
-511.0467199914
 10
1252.3059908576
 20
-510.1645076969
 10
1252.9861047752
 20
-509.3492209437
 10
1253.9634267015
 20
-508.6417416137
 10
1255.1889496342
 20
-508.0775456749
 10
1256.6012207361
 20
-507.6849242675
 10
1258.1294228371
 20
-507.4835650683
 10
1259.6969255025
 20
-507.4835650683
 10
1261.2251276035
 20
-507.6849242675
 10
1262.6373987054
 20
-508.0775456749
 10
1263.8629216381
 20
-508.6417416137
 10
1264.8402435644
 20
-509.3492209437
 10
1265.520357482
 20
-510.1645076969
 10
1265.8691596391
 20
-511.0467199914
 10
1265.8691596391
 20
-511.9516200188
 10
1265.520357482
 20
-512.8338323133
 10
1264.8402435644
 20
-513.6491190666
 10
1263.8629216381
 20
-514.3565983965
 10
1262.6373987054
 20
-514.9207943353
 10
1261.2251276035
 20
-515.3134157427
 10
1259.6969255025
 20
-515.514774942
 10
1258.1294228371
 20
-515.514774942
 10
1256.6012207361
 20
-515.3134157427
 10
1255.1889496342
 20
-514.9207943353
 10
1253.9634267015
 20
-514.3565983965
  0
LWPOLYLINE
  5
123
330
1F
100
AcDbEntity
  8
0
  6
Continuous
 62
     7
370
    25
100
AcDbPolyline
 90
       24
 70
   128
 43
0.0
 10
1255.3776402639
 20
-513.5401902847
 10
1254.5548718196
 20
-512.9138430348
 10
1254.0553387228
 20
-512.1825759581
 10
1253.916089058
 20
-511.4006237882
 10
1254.1474503357
 20
-510.6259803404
 10
1254.7322635485
 20
-509.9160973754
 10
1255.6271557757
 20
-509.3236236653
 10
1256.7657569547
 20
-508.8925002748
 10
1258.0636222447
 20
-508.6547016534
 10
1259.4244949145
 20
-508.6278642372
 10
1260.7474452639
 20
-508.8139784343
 10
1261.9343561174
 20
-509.1992410064
 10
1262.8971997269
 20
-509.7550787908
 10
1263.5645663865
 20
-510.4402678419
 10
1263.8869605641
 20
-511.2039908223
 10
1263.8404717584
 20
-511.9896058923
 10
1263.4285478314
 20
-512.7388475762
 10
1262.6817392964
 20
-513.3961480457
 10
1261.6554335261
 20
-513.9127583321
 10
1260.4257469242
 20
-514.2503638137
 10
1259.0838797207
 20
-514.3839258364
 10
1257.7293520675
 20
-514.303538716
 10
1256.4626230839
 20
-514.0151643974
 10
1255.3776402639
 20
-513.5401902847
  0
SPLINE
  5
124
330
1F
100
AcDbEntity
  8
0
  6
Continuous
 62
     7
370
    25
100
AcDbSpline
210
0.0
220
0.0
230
1.0
 70
     8
 71
     3
 72
    12
 73
     8
 74
     0
 42
0.00000001
 43
0.00000001
 40
0.0
 40
0.0
 40
0.0
 40
0.0
 40
0.2100366067923785
 40
0.4251889432341763
 40
0.6408801588640098
 40
0.8573960630461952
 40
1.0
 40
1.0
 40
1.0
 40
1.0
 10
1255.264000876335
 20
-513.3466182975603
 30
0.0
 10
1255.673859007598
 20
-513.142277069153
 30
0.0
 10
1256.50355792708
 20
-512.7286176014417
 30
0.0
 10
1258.135108629392
 20
-512.4996276885563
 30
0.0
 10
1259.822516404746
 20
-512.6169819837814
 30
0.0
 10
1261.283719650006
 20
-513.0032056707321
 30
0.0
 10
1261.969919315352
 20
-513.4451434899989
 30
0.0
 10
1262.242404326219
 20
-513.6206338575511
 30
0.0
  0
LWPOLYLINE
  5
125
330
1F
100
AcDbEntity
  8
0
  6
Continuous
 62
     7
370
    25
100
AcDbPolyline
 90
       29
 70
   128
 43
0.0
 10
1214.3654469551
 20
-480.0674576999
 10
1215.3427688813
 20
-480.7749370299
 10
1216.0228827989
 20
-481.5902237831
 10
1216.371684956
 20
-482.4724360776
 10
1216.371684956
 20
-483.377336105
 10
1216.0228827989
 20
-484.2595483995
 10
1215.3427688813
 20
-485.0748351528
 10
1214.3654469551
 20
-485.7823144827
 10
1213.1399240224
 20
-486.3465104215
 10
1211.7276529204
 20
-486.7391318289
 10
1210.1994508195
 20
-486.9404910282
 10
1208.631948154
 20
-486.9404910282
 10
1207.1037460531
 20
-486.7391318289
 10
1205.6914749511
 20
-486.3465104215
 10
1204.4659520184
 20
-485.7823144827
 10
1203.4886300922
 20
-485.0748351528
 10
1202.8085161746
 20
-484.2595483995
 10
1202.4597140175
 20
-483.377336105
 10
1202.4597140175
 20
-482.4724360776
 10
1202.8085161746
 20
-481.5902237831
 10
1203.4886300922
 20
-480.7749370299
 10
1204.4659520184
 20
-480.0674576999
 10
1205.6914749511
 20
-479.5032617611
 10
1207.1037460531
 20
-479.1106403537
 10
1208.631948154
 20
-478.9092811545
 10
1210.1994508195
 20
-478.9092811545
 10
1211.7276529204
 20
-479.1106403537
 10
1213.1399240224
 20
-479.5032617611
 10
1214.3654469551
 20
-480.0674576999
  0
LWPOLYLINE
  5
126
330
1F
100
AcDbEntity
  8
0
  6
Continuous
 62
     7
370
    25
100
AcDbPolyline
 90
       24
 70
   128
 43
0.0
 10
1212.9512333927
 20
-480.8838658118
 10
1213.7740018369
 20
-481.5102130616
 10
1214.2735349337
 20
-482.2414801384
 10
1214.4127845986
 20
-483.0234323083
 10
1214.1814233208
 20
-483.7980757561
 10
1213.596610108
 20
-484.507958721
 10
1212.7017178808
 20
-485.1004324311
 10
1211.5631167019
 20
-485.5315558217
 10
1210.2652514119
 20
-485.769354443
 10
1208.904378742
 20
-485.7961918593
 10
1207.5814283927
 20
-485.6100776621
 10
1206.3945175391
 20
-485.2248150901
 10
1205.4316739297
 20
-484.6689773057
 10
1204.7643072701
 20
-483.9837882546
 10
1204.4419130925
 20
-483.2200652742
 10
1204.4884018982
 20
-482.4344502042
 10
1204.9003258251
 20
-481.6852085203
 10
1205.6471343601
 20
-481.0279080507
 10
1206.6734401305
 20
-480.5112977643
 10
1207.9031267323
 20
-480.1736922827
 10
1209.2449939358
 20
-480.04013026
 10
1210.5995215891
 20
-480.1205173804
 10
1211.8662505726
 20
-480.408891699
 10
1212.9512333927
 20
-480.8838658118
  0
SPLINE
  5
127
330
1F
100
AcDbEntity
  8
0
  6
Continuous
 62
     7
370
    25
100
AcDbSpline
210
0.0
220
0.0
230
1.0
 70
     8
 71
     3
 72
    12
 73
     8
 74
     0
 42
0.00000001
 43
0.00000001
 40
0.0
 40
0.0
 40
0.0
 40
0.0
 40
0.0255631736724305
 40
0.2731867082351898
 40
0.521219675112578
 40
0.7705597330184895
 40
1.0
 40
1.0
 40
1.0
 40
1.0
 10
1206.550137038338
 20
-485.2204923212748
 30
0.0
 10
1206.591721123695
 20
-485.1979410996161
 30
0.0
 10
1207.036118972695
 20
-484.9569423061726
 30
0.0
 10
1208.207140318364
 20
-484.6902535093686
 30
0.0
 10
1209.866354959053
 20
-484.5122780555912
 30
0.0
 10
1211.500376226315
 20
-484.623830708658
 30
0.0
 10
1212.349794567591
 20
-484.9176182672175
 30
0.0
 10
1212.756851334277
 20
-485.0584066254016
 30
0.0
  0
LWPOLYLINE
  5
128
330
1F
100
AcDbEntity
  8
0
  6
Continuous
 62
     1
370
    25
100
AcDbPolyline
 90
      101
 70
   128
 43
0.0
 10
922.1890695758
 20
-561.8532899649
 10
924.2655546362
 20
-560.6828710167
 10
929.959430861
 20
-557.7519128254
 10
935.822121151
 20
-555.131243495
 10
941.8476621957
 20
-552.8235286729
 10
948.0299250389
 20
-550.8311156808
 10
954.3626213128
 20
-549.156031127
 10
960.8393096343
 20
-547.7999788453
 10
967.453402157
 20
-546.7643381615
 10
974.198171272
 20
-546.0501624909
 10
981.0667564511
 20
-545.6581782663
 10
988.052171225
 20
-545.5887841996
 10
995.1473102896
 20
-545.8420508758
 10
1002.3449567334
 20
-546.4177206815
 10
1009.6377893782
 20
-547.3152080667
 10
1017.0183902258
 20
-548.5336001407
 10
1024.4792520038
 20
-550.0716576004
 10
1032.012785801
 20
-551.9278159909
 10
1039.6113287871
 20
-554.100187297
 10
1047.2671520068
 20
-556.5865618634
 10
1054.9724682416
 20
-559.3844106424
 10
1062.7194399304
 20
-562.4908877663
 10
1070.5001871418
 20
-565.9028334421
 10
1078.3067955892
 20
-569.6167771656
 10
1086.1313246809
 20
-573.6289412514
 10
1093.965815597
 20
-577.9352446755
 10
1101.8022993847
 20
-582.5313072261
 10
1109.6328050643
 20
-587.4124539595
 10
1117.4493677366
 20
-592.5737199548
 10
1125.2440366849
 20
-598.0098553642
 10
1133.008883462
 20
-603.715330753
 10
1140.7360099544
 20
-609.6843427238
 10
1148.4175564167
 20
-615.9108198198
 10
1156.0457094655
 20
-622.3884287
 10
1163.6127100272
 20
-629.1105805817
 10
1171.1108612305
 20
-636.0704379421
 10
1178.5325362348
 20
-643.2609214731
 10
1185.8701859883
 20
-650.6747172823
 10
1193.1163469069
 20
-658.3042843326
 10
1200.263648465
 20
-666.141862112
 10
1207.3048206934
 20
-674.1794785281
 10
1214.2327015738
 20
-682.4089580164
 10
1221.0402443233
 20
-690.8219298566
 10
1227.7205245627
 20
-699.4098366865
 10
1234.2667473596
 20
-708.163943207
 10
1240.6722541394
 20
-717.0753450664
 10
1246.9305294592
 20
-726.1349779183
 10
1253.0352076339
 20
-735.3336266412
 10
1258.9800792121
 20
-744.6619347118
 10
1264.7590972915
 20
-754.1104137221
 10
1270.36638367
 20
-763.6694530308
 10
1275.7962348243
 20
-773.3293295387
 10
1281.043127712
 20
-783.0802175787
 10
1286.1017253888
 20
-792.9121989104
 10
1290.9668824372
 20
-802.8152728079
 10
1295.6336502005
 20
-812.779366233
 10
1300.0972818162
 20
-822.7943440804
 10
1304.3532370442
 20
-832.8500194873
 10
1308.3971868852
 20
-842.9361641947
 10
1312.2250179838
 20
-853.0425189514
 10
1315.8328368126
 20
-863.1588039494
 10
1319.2169736326
 20
-873.2747292798
 10
1322.3739862256
 20
-883.3800053997
 10
1325.3006633959
 20
-893.4643535981
 10
1327.9940282364
 20
-903.5175164513
 10
1330.4513411564
 20
-913.5292682559
 10
1332.6701026688
 20
-923.4894254305
 10
1334.6480559319
 20
-933.3878568736
 10
1336.3831890451
 20
-943.214494269
 10
1337.8737370956
 20
-952.9593423268
 10
1339.1181839534
 20
-962.61248895
 10
1340.1152638135
 20
-972.1641153169
 10
1340.8639624833
 20
-981.6045058685
 10
1341.3635184143
 20
-990.9240581908
 10
1341.6134234769
 20
-1000.1132927818
 10
1341.6134234769
 20
-1009.1628626939
 10
1341.3635184143
 20
-1018.0635630413
 10
1340.8639624833
 20
-1026.8063403626
 10
1340.1152638135
 20
-1035.38230183
 10
1339.1181839534
 20
-1043.7827242946
 10
1337.8737370956
 20
-1051.999063159
 10
1336.3831890451
 20
-1060.0229610691
 10
1334.6480559318
 20
-1067.8462564143
 10
1332.6701026688
 20
-1075.4609916298
 10
1330.4513411564
 20
-1082.85942129
 10
1327.9940282364
 20
-1090.0340199876
 10
1325.3006633959
 20
-1096.9774899877
 10
1322.3739862256
 20
-1103.6827686508
 10
1319.2169736326
 20
-1110.143035617
 10
1315.8328368126
 20
-1116.351719743
 10
1312.2250179838
 20
-1122.3025057863
 10
1308.3971868852
 20
-1127.9893408287
 10
1304.3532370442
 20
-1133.4064404332
 10
1300.0972818162
 20
-1138.5482945275
 10
1295.6336502005
 20
-1143.4096730089
 10
1290.9668824372
 20
-1147.9856310641
 10
1286.1017253888
 20
-1152.2715141988
 10
1281.043127712
 20
-1156.2629629721
 10
1275.7962348243
 20
-1159.9559174308
 10
1270.36638367
 20
-1163.3466212389
 10
1269.6610181302
 20
-1163.7571402332
  0
LWPOLYLINE
  5
129
330
1F
100
AcDbEntity
  8
0
  6
Continuous
 62
     1
370
    25
100
AcDbPolyline
 90
      101
 70
   128
 43
0.0
 10
939.8668508405
 20
-551.6481240638
 10
941.9432241658
 20
-550.4777696189
 10
947.6371003907
 20
-547.5468114276
 10
953.4997906807
 20
-544.9261420972
 10
959.5253317254
 20
-542.6184272752
 10
965.7075945686
 20
-540.626014283
 10
972.0402908424
 20
-538.9509297293
 10
978.516979164
 20
-537.5948774475
 10
985.1310716867
 20
-536.5592367637
 10
991.8758408017
 20
-535.8450610931
 10
998.7444259808
 20
-535.4530768686
 10
1005.7298407547
 20
-535.3836828018
 10
1012.8249798193
 20
-535.636949478
 10
1020.0226262631
 20
-536.2126192837
 10
1027.3154589078
 20
-537.1101066689
 10
1034.6960597555
 20
-538.3284987429
 10
1042.1569215335
 20
-539.8665562026
 10
1049.6904553306
 20
-541.7227145931
 10
1057.2889983167
 20
-543.8950858992
 10
1064.9448215365
 20
-546.3814604656
 10
1072.6501377713
 20
-549.1793092446
 10
1080.3971094601
 20
-552.2857863685
 10
1088.1778566715
 20
-555.6977320443
 10
1095.9844651189
 20
-559.4116757678
 10
1103.8089942106
 20
-563.4238398536
 10
1111.6434851266
 20
-567.7301432777
 10
1119.4799689144
 20
-572.3262058284
 10
1127.3104745939
 20
-577.2073525618
 10
1135.1270372663
 20
-582.368618557
 10
1142.9217062146
 20
-587.8047539664
 10
1150.6865529916
 20
-593.5102293552
 10
1158.4136794841
 20
-599.479241326
 10
1166.0952259464
 20
-605.705718422
 10
1173.7233789951
 20
-612.1833273022
 10
1181.2903795569
 20
-618.9054791839
 10
1188.7885307601
 20
-625.8653365443
 10
1196.2102057644
 20
-633.0558200753
 10
1203.547855518
 20
-640.4696158846
 10
1210.7940164365
 20
-648.0991829348
 10
1217.9413179946
 20
-655.9367607143
 10
1224.9824902231
 20
-663.9743771304
 10
1231.9103711035
 20
-672.2038566187
 10
1238.717913853
 20
-680.6168284588
 10
1245.3981940924
 20
-689.2047352888
 10
1251.9444168892
 20
-697.9588418092
 10
1258.3499236691
 20
-706.8702436686
 10
1264.6081989888
 20
-715.9298765205
 10
1270.7128771635
 20
-725.1285252434
 10
1276.6577487417
 20
-734.456833314
 10
1282.4367668212
 20
-743.9053123243
 10
1288.0440531996
 20
-753.464351633
 10
1293.473904354
 20
-763.1242281409
 10
1298.7207972417
 20
-772.875116181
 10
1303.7793949184
 20
-782.7070975126
 10
1308.6445519669
 20
-792.6101714101
 10
1313.3113197302
 20
-802.5742648352
 10
1317.7749513459
 20
-812.5892426826
 10
1322.0309065739
 20
-822.6449180895
 10
1326.0748564148
 20
-832.7310627969
 10
1329.9026875134
 20
-842.8374175537
 10
1333.5105063423
 20
-852.9537025516
 10
1336.8946431622
 20
-863.069627882
 10
1340.0516557553
 20
-873.1749040019
 10
1342.9783329256
 20
-883.2592522004
 10
1345.671697766
 20
-893.3124150535
 10
1348.1290106861
 20
-903.3241668581
 10
1350.3477721985
 20
-913.2843240327
 10
1352.3257254615
 20
-923.1827554758
 10
1354.0608585747
 20
-933.0093928712
 10
1355.5514066253
 20
-942.754240929
 10
1356.7958534831
 20
-952.4073875522
 10
1357.7929333432
 20
-961.9590139191
 10
1358.5416320129
 20
-971.3994044708
 10
1359.041187944
 20
-980.718956793
 10
1359.2910930065
 20
-989.908191384
 10
1359.2910930065
 20
-998.9577612961
 10
1359.041187944
 20
-1007.8584616435
 10
1358.5416320129
 20
-1016.6012389648
 10
1357.7929333432
 20
-1025.1772004322
 10
1356.7958534831
 20
-1033.5776228968
 10
1355.5514066253
 20
-1041.7939617612
 10
1354.0608585747
 20
-1049.8178596713
 10
1352.3257254615
 20
-1057.6411550166
 10
1350.3477721985
 20
-1065.255890232
 10
1348.1290106861
 20
-1072.6543198922
 10
1345.671697766
 20
-1079.8289185898
 10
1342.9783329256
 20
-1086.7723885899
 10
1340.0516557553
 20
-1093.477667253
 10
1336.8946431622
 20
-1099.9379342192
 10
1333.5105063423
 20
-1106.1466183452
 10
1329.9026875134
 20
-1112.0974043886
 10
1326.0748564148
 20
-1117.784239431
 10
1322.0309065738
 20
-1123.2013390354
 10
1317.7749513459
 20
-1128.3431931297
 10
1313.3113197302
 20
-1133.2045716111
 10
1308.6445519669
 20
-1137.7805296663
 10
1303.7793949184
 20
-1142.066412801
 10
1298.7207972417
 20
-1146.0578615743
 10
1293.473904354
 20
-1149.750816033
 10
1288.0440531996
 20
-1153.1415198411
 10
1287.3386104315
 20
-1153.5520834184
  0
ENDSEC
  0
SECTION
  2
OBJECTS
  0
DICTIONARY
  5
C
330
0
100
AcDbDictionary
281
     1
  3
ACAD_GROUP
350
D
  3
ACAD_LAYOUT
350
1A
  3
ACAD_MLINESTYLE
350
17
  3
ACAD_PLOTSETTINGS
350
19
  3
ACAD_PLOTSTYLENAME
350
E
  3
ACAD_SCALELIST
350
47
  3
DWGPROPS
350
12A
  0
DICTIONARY
  5
D
102
{ACAD_REACTORS
330
C
102
}
330
C
100
AcDbDictionary
281
     1
  0
DICTIONARY
  5
1A
102
{ACAD_REACTORS
330
C
102
}
330
C
100
AcDbDictionary
281
     1
  3
Layout1
350
1E
  3
Layout2
350
26
  3
Model
350
22
  0
DICTIONARY
  5
17
102
{ACAD_REACTORS
330
C
102
}
330
C
100
AcDbDictionary
281
     1
  3
Standard
350
18
  0
DICTIONARY
  5
19
102
{ACAD_REACTORS
330
C
102
}
330
C
100
AcDbDictionary
281
     1
  0
ACDBDICTIONARYWDFLT
  5
E
102
{ACAD_REACTORS
330
C
102
}
330
C
100
AcDbDictionary
281
     1
  3
Normal
350
F
100
AcDbDictionaryWithDefault
340
F
  0
DICTIONARY
  5
47
102
{ACAD_REACTORS
330
C
102
}
330
C
100
AcDbDictionary
281
     1
  3
A0
350
48
  3
A1
350
49
  3
A2
350
4A
  3
A3
350
4B
  3
A4
350
4C
  3
A5
350
4D
  3
A6
350
4E
  3
A7
350
4F
  3
A8
350
50
  3
A9
350
51
  3
B0
350
52
  3
B1
350
53
  3
B2
350
54
  3
B3
350
55
  3
B4
350
56
  3
B5
350
57
  3
B6
350
58
  3
B7
350
59
  3
B8
350
5A
  3
B9
350
5B
  3
C0
350
5C
  3
C1
350
5D
  3
C2
350
5E
  3
C3
350
5F
  3
C4
350
60
  3
C5
350
61
  3
C6
350
62
  3
C7
350
63
  3
C8
350
64
  3
C9
350
65
  3
D0
350
66
  3
D1
350
67
  3
D2
350
68
  0
XRECORD
  5
12A
102
{ACAD_REACTORS
330
C
102
}
330
C
100
AcDbXrecord
280
     1
  1
DWGPROPS COOKIE
  2

  3

  4

  6

  7

  8
b.kav
  9

300
=
301
=
302
=
303
=
304
=
305
=
306
=
307
=
308
=
309
=
 40
0.0
 41
2459935.58548912
 42
2459935.585489294
  1

 90
        0
  0
LAYOUT
  5
1E
102
{ACAD_REACTORS
330
1A
102
}
330
1A
100
AcDbPlotSettings
  1

  2
none_device
  4

  6

 40
0.0
 41
0.0
 42
0.0
 43
0.0
 44
0.0
 45
0.0
 46
0.0
 47
0.0
 48
0.0
 49
0.0
140
0.0
141
0.0
142
1.0
143
1.0
 70
   688
 72
     1
 73
     0
 74
     5
  7

 75
    16
147
1.0
148
0.0
149
0.0
100
AcDbLayout
  1
Layout1
 70
     1
 71
     1
 10
0.0
 20
0.0
 11
420.0
 21
297.0
 12
0.0
 22
0.0
 32
0.0
 14
1.0000000000E+20
 24
1.0000000000E+20
 34
1.0000000000E+20
 15
-1.0000000000E+20
 25
-1.0000000000E+20
 35
-1.0000000000E+20
146
0.0
 13
0.0
 23
0.0
 33
0.0
 16
1.0
 26
0.0
 36
0.0
 17
0.0
 27
1.0
 37
0.0
 76
     0
330
1B
  0
LAYOUT
  5
26
102
{ACAD_REACTORS
330
1A
102
}
330
1A
100
AcDbPlotSettings
  1

  2
none_device
  4

  6

 40
0.0
 41
0.0
 42
0.0
 43
0.0
 44
0.0
 45
0.0
 46
0.0
 47
0.0
 48
0.0
 49
0.0
140
0.0
141
0.0
142
1.0
143
1.0
 70
   688
 72
     1
 73
     0
 74
     5
  7

 75
    16
147
1.0
148
0.0
149
0.0
100
AcDbLayout
  1
Layout2
 70
     1
 71
     2
 10
0.0
 20
0.0
 11
0.0
 21
0.0
 12
0.0
 22
0.0
 32
0.0
 14
0.0
 24
0.0
 34
0.0
 15
0.0
 25
0.0
 35
0.0
146
0.0
 13
0.0
 23
0.0
 33
0.0
 16
1.0
 26
0.0
 36
0.0
 17
0.0
 27
1.0
 37
0.0
 76
     0
330
23
  0
LAYOUT
  5
22
102
{ACAD_REACTORS
330
1A
102
}
330
1A
100
AcDbPlotSettings
  1

  2
none_device
  4
Letter_(8.50_x_11.00_Inches)
  6

 40
6.35
 41
6.35
 42
6.35000508
 43
6.35000508
 44
215.9
 45
279.4
 46
0.0
 47
0.0
 48
0.0
 49
0.0
140
0.0
141
0.0
142
1.0
143
1.0
 70
  1712
 72
     1
 73
     0
 74
     0
  7

 75
     0
147
1.0
148
0.0
149
0.0
100
AcDbLayout
  1
Model
 70
     1
 71
     0
 10
0.0
 20
0.0
 11
279.4
 21
215.9
 12
0.0
 22
0.0
 32
0.0
 14
0.0
 24
0.0
 34
0.0
 15
279.4
 25
215.9
 35
0.0
146
0.0
 13
0.0
 23
0.0
 33
0.0
 16
1.0
 26
0.0
 36
0.0
 17
0.0
 27
1.0
 37
0.0
 76
     0
330
1F
331
29
  0
MLINESTYLE
  5
18
102
{ACAD_REACTORS
330
17
102
}
330
17
100
AcDbMlineStyle
  2
Standard
 70
     0
  3

 62
   256
 51
90.0
 52
90.0
 71
     2
 49
0.5
 62
   256
  6
BYLAYER
 49
-0.5
 62
   256
  6
BYLAYER
  0
ACDBPLACEHOLDER
  5
F
102
{ACAD_REACTORS
330
E
102
}
330
E
  0
SCALE
  5
48
102
{ACAD_REACTORS
330
47
102
}
330
47
100
AcDbScale
 70
     0
300
1:1
140
1.0
141
1.0
290
     1
  0
SCALE
  5
49
102
{ACAD_REACTORS
330
47
102
}
330
47
100
AcDbScale
 70
     0
300
1:2
140
1.0
141
2.0
290
     0
  0
SCALE
  5
4A
102
{ACAD_REACTORS
330
47
102
}
330
47
100
AcDbScale
 70
     0
300
1:4
140
1.0
141
4.0
290
     0
  0
SCALE
  5
4B
102
{ACAD_REACTORS
330
47
102
}
330
47
100
AcDbScale
 70
     0
300
1:5
140
1.0
141
5.0
290
     0
  0
SCALE
  5
4C
102
{ACAD_REACTORS
330
47
102
}
330
47
100
AcDbScale
 70
     0
300
1:8
140
1.0
141
8.0
290
     0
  0
SCALE
  5
4D
102
{ACAD_REACTORS
330
47
102
}
330
47
100
AcDbScale
 70
     0
300
1:10
140
1.0
141
10.0
290
     0
  0
SCALE
  5
4E
102
{ACAD_REACTORS
330
47
102
}
330
47
100
AcDbScale
 70
     0
300
1:16
140
1.0
141
16.0
290
     0
  0
SCALE
  5
4F
102
{ACAD_REACTORS
330
47
102
}
330
47
100
AcDbScale
 70
     0
300
1:20
140
1.0
141
20.0
290
     0
  0
SCALE
  5
50
102
{ACAD_REACTORS
330
47
102
}
330
47
100
AcDbScale
 70
     0
300
1:30
140
1.0
141
30.0
290
     0
  0
SCALE
  5
51
102
{ACAD_REACTORS
330
47
102
}
330
47
100
AcDbScale
 70
     0
300
1:40
140
1.0
141
40.0
290
     0
  0
SCALE
  5
52
102
{ACAD_REACTORS
330
47
102
}
330
47
100
AcDbScale
 70
     0
300
1:50
140
1.0
141
50.0
290
     0
  0
SCALE
  5
53
102
{ACAD_REACTORS
330
47
102
}
330
47
100
AcDbScale
 70
     0
300
1:100
140
1.0
141
100.0
290
     0
  0
SCALE
  5
54
102
{ACAD_REACTORS
330
47
102
}
330
47
100
AcDbScale
 70
     0
300
2:1
140
2.0
141
1.0
290
     0
  0
SCALE
  5
55
102
{ACAD_REACTORS
330
47
102
}
330
47
100
AcDbScale
 70
     0
300
4:1
140
4.0
141
1.0
290
     0
  0
SCALE
  5
56
102
{ACAD_REACTORS
330
47
102
}
330
47
100
AcDbScale
 70
     0
300
8:1
140
8.0
141
1.0
290
     0
  0
SCALE
  5
57
102
{ACAD_REACTORS
330
47
102
}
330
47
100
AcDbScale
 70
     0
300
10:1
140
10.0
141
1.0
290
     0
  0
SCALE
  5
58
102
{ACAD_REACTORS
330
47
102
}
330
47
100
AcDbScale
 70
     0
300
100:1
140
100.0
141
1.0
290
     0
  0
SCALE
  5
59
102
{ACAD_REACTORS
330
47
102
}
330
47
100
AcDbScale
 70
     0
300
1/128" = 1'-0"
140
0.0078125
141
12.0
290
     0
  0
SCALE
  5
5A
102
{ACAD_REACTORS
330
47
102
}
330
47
100
AcDbScale
 70
     0
300
1/64" = 1'-0"
140
0.015625
141
12.0
290
     0
  0
SCALE
  5
5B
102
{ACAD_REACTORS
330
47
102
}
330
47
100
AcDbScale
 70
     0
300
1/32" = 1'-0"
140
0.03125
141
12.0
290
     0
  0
SCALE
  5
5C
102
{ACAD_REACTORS
330
47
102
}
330
47
100
AcDbScale
 70
     0
300
1/16" = 1'-0"
140
0.0625
141
12.0
290
     0
  0
SCALE
  5
5D
102
{ACAD_REACTORS
330
47
102
}
330
47
100
AcDbScale
 70
     0
300
3/32" = 1'-0"
140
0.09375
141
12.0
290
     0
  0
SCALE
  5
5E
102
{ACAD_REACTORS
330
47
102
}
330
47
100
AcDbScale
 70
     0
300
1/8" = 1'-0"
140
0.125
141
12.0
290
     0
  0
SCALE
  5
5F
102
{ACAD_REACTORS
330
47
102
}
330
47
100
AcDbScale
 70
     0
300
3/16" = 1'-0"
140
0.1875
141
12.0
290
     0
  0
SCALE
  5
60
102
{ACAD_REACTORS
330
47
102
}
330
47
100
AcDbScale
 70
     0
300
1/4" = 1'-0"
140
0.25
141
12.0
290
     0
  0
SCALE
  5
61
102
{ACAD_REACTORS
330
47
102
}
330
47
100
AcDbScale
 70
     0
300
3/8" = 1'-0"
140
0.375
141
12.0
290
     0
  0
SCALE
  5
62
102
{ACAD_REACTORS
330
47
102
}
330
47
100
AcDbScale
 70
     0
300
1/2" = 1'-0"
140
0.5
141
12.0
290
     0
  0
SCALE
  5
63
102
{ACAD_REACTORS
330
47
102
}
330
47
100
AcDbScale
 70
     0
300
3/4" = 1'-0"
140
0.75
141
12.0
290
     0
  0
SCALE
  5
64
102
{ACAD_REACTORS
330
47
102
}
330
47
100
AcDbScale
 70
     0
300
1" = 1'-0"
140
1.0
141
12.0
290
     0
  0
SCALE
  5
65
102
{ACAD_REACTORS
330
47
102
}
330
47
100
AcDbScale
 70
     0
300
1-1/2" = 1'-0"
140
1.5
141
12.0
290
     0
  0
SCALE
  5
66
102
{ACAD_REACTORS
330
47
102
}
330
47
100
AcDbScale
 70
     0
300
3" = 1'-0"
140
3.0
141
12.0
290
     0
  0
SCALE
  5
67
102
{ACAD_REACTORS
330
47
102
}
330
47
100
AcDbScale
 70
     0
300
6" = 1'-0"
140
6.0
141
12.0
290
     0
  0
SCALE
  5
68
102
{ACAD_REACTORS
330
47
102
}
330
47
100
AcDbScale
 70
     0
300
1'-0" = 1'-0"
140
12.0
141
12.0
290
     0
  0
ENDSEC
  0
EOF
